Guitaretab - guitar tabs
Song name
# A B C D E F G H I J K L M N O P Q R S T U V W X Y Z

Puggy - Out Of Hand tab

-------------------------------------------------------------------------------
      OUT OF HAND - Puggy
-------------------------------------------------------------------------------
Tabbed by: Adammorgan710
Email: Adammorgan710@hotmail.com
Tuning: Standard

This song's got an unusual picking rythm, you'll have to give it a listen to get it down 
Not sure of the names of the chords in the chorus either, but they sound right to me.


Intro
e|------9----9/10\9----9----9/10\9----9-----9/10\9----9-----9--9--------|
B|----------------------------------------------------------------------|
G|----------------------------------------------------------------------|
D|--x-7---7----------7----7--------7------7--------7-----7--------7-----|
A|----------------------------------------------------------------------|
E|----------------------------------------------------------------------|


Verse
e|------9----9/10\9---9----9/10\9-----5------5/6\5-----4------4/5\4-----|
B|----------------------------------------------------------------------|
G|----------------------------------------------------------------------|
D|--x-7---7---------7----7---------4------4----------2-----2---------2--|
A|----------------------------------------------------------------------|
E|----------------------------------------------------------------------|

e|------9----9/10\9---9----9/10\9-----5-----5/6\5-----4-----4/5\4-------|
B|----------------------------------------------------------------------|
G|----------------------------------------------------------------------|
D|--x-7---7--------7----7---------4-----4----------2-----2---------2----|
A|----------------------------------------------------------------------|
E|----------------------------------------------------------------------|

e|------9----9/10\9---9----9/10\9-----5------5/6\5-----4-----4/5\4------|
B|----------------------------------------------------------------------|
G|----------------------------------------------------------------------|
D|--x-7---7--------7----7---------4------4----------2-----2---------2---|
A|----------------------------------------------------------------------|
E|----------------------------------------------------------------------|

[ Tab from: http://www.guitaretab.com/p/puggy/173144.html ]
e|--2222222222222222----------------------------------|
B|--3333333333333333----------------------------------|
G|--2222222222222222----------------------------------|
D|--0000000000000000----------------------------------|
A|----------------------------------------------------|
E|----------------------------------------------------|


Chorus
e|--222-------------------------------222---------------|
B|--222---222---222----777------------222---222---222---|
G|--222---xxx---xxx----777------------222---xxx---xxx---|
D|--444---333---444----777------X3----444---333---444---|
A|--444---444---444----555------------444---444---444---|
E|--------444-------------------------------444---------|


Solo
e|----s9-7-5-9-7-5-7-9-5-—s9-7-5—s10-9-7-5--77-99-10-10—12-12-14-14-16-16--|
B|-------------------------------------------------------------------------------------------|
G|-------------------------------------------------------------------------------------------|
D|-------------------------------------------------------------------------------------------|
A|-------------------------------------------------------------------------------------------|
E|-------------------------------------------------------------------------------------------|

e|---17-17-19b--s9-7-5-9-7-5-7-9-5-—s9-7-5—s10-9-7-5--77-99-10-10—12-12-13b--|
B|---------------------------------------------------------------------------------------------|
G|---------------------------------------------------------------------------------------------|
D|---------------------------------------------------------------------------------------------|
A|---------------------------------------------------------------------------------------------|
E|---------------------------------------------------------------------------------------------|


Order:
======

Intro x2
Verse x2
Chorus x2
Intro x2
Verse
Chorus
Solo
Verse
Chorus x3


Also, here's the little licky-thing just before the second verse...

e|-------9--7--5--4--2—4/5----------------------|
B|----------------------------------------------------|
G|----------------------------------------------------|
D|----7-----------------------------------------------|
A|----------------------------------------------------|
E|----------------------------------------------------|


That's all, so go nuts... Praise be to Bob Ross.


| /  slide up
| \  slide down
| h  hammer-on
| p  pull-off
| ~  vibrato
| +  harmonic
| x  Mute note
===============================================================================
Related for Out Of Hand tab