Song name
# A B C D E F G H I J K L M N O P Q R S T U V W X Y Z

Puggy - You Call Me Up tab

Band : Puggy
Song : You Call me Up
Album : Something You might like
Year : 2010


Chords Used in :
Verses :
Gm   : 3xx333 
D(1) : 2xx232
D(2) : 5xx775
Bb   : 6xx766
F(1) : 5xx545
F(2) : 8xx10108
Chorus :
D# : x68886  or  xx5343
D  : x57775  or  xx4232
Gm : 355333
Cm : x35543
F  : 133211


e|---------5---6------10--8--6--5----------5---6--------|
B|-8-------------8-----------------8--------------8---7-|
G|------7-------------------------------7---------------|
D|------------------------------------------------------|
A|------------------------------------------------------|
E|------------------------------------------------------|


Verse 1

e|---3-x---3--2--5--3-x---3--2--5--6-x---6--5--8---6-x--6---5--|
B|---3-x---3--3--7--3-x---3--3--7--6-x---6--4--10--6-x--6---4--|
G|---3-x---3--2--7--3-x---3--2--7--7-x---7--5--10--7-x--7---5--|
D|-----x--------------x--------------x---------------x---------|
A|-----x--------------x--------------x---------------x---------|
E|-3---x-----2--5--3--x-----2--5--6--x-----5--8---6--x-----5---|
  You     Call Me Up             Telling me to  what  got
                                              get   you   I don't want to 
 
e|---3-x---3--2--5--3-x---3--2--5--6-x---6--5--8---6-x--6----5-|
B|---3-x---3--3--7--3-x---3--3--7--6-x---6--4--10--6-x--6----4-|
G|---3-x---3--2--7--3-x---3--2--7--7-x---7--5--10--7-x--7----5-|
D|-----x--------------x--------------x---------------x---------|
A|-----x--------------x--------------x---------------x---------|
E|-3---x-----2--5--3--x-----2--5--6--x-----5--8---6--x-------5-|
  hear  what  made up            rather meet when    on top  So ...
          you've               I'd         you  you're



Chorus

D#               D            Gm
I should know a little 'bout you 
         Cm
What you do 
D#               D            Gm
I should know a little 'bout you 
D#               D
I should know a little
Gm               F
I should know a little
D#               D            Gmin9
I should know a little 'bout you


e|---------5---6------10--8--6--5----------5---6--------|
B|-8-------------8-----------------8--------------8---7-|
G|------7-------------------------------7---------------|
D|------------------------------------------------------|
A|------------------------------------------------------|
E|------------------------------------------------------|
    Ouhouhouhouh......




Verse 2

e|---3-x---3--2--5--3-x---3--2--5--6-x---6--5--8---6-x--6---5--|
B|---3-x---3--3--7--3-x---3--3--7--6-x---6--4--10--6-x--6---4--|
G|---3-x---3--2--7--3-x---3--2--7--7-x---7--5--10--7-x--7---5--|
D|-----x--------------x--------------x---------------x---------|
A|-----x--------------x--------------x---------------x---------|
E|-3---x-----2--5--3--x-----2--5--6--x-----5--8---6--x-----5---|
  You      tied up         Left me here and never came back You don't even
              me

e|---3-x---3--2--5--3-x---3--2--5--6-x---6--5--8---6-x--6----5-|
B|---3-x---3--3--7--3-x---3--3--7--6-x---6--4--10--6-x--6----4-|
G|---3-x---3--2--7--3-x---3--2--7--7-x---7--5--10--7-x--7----5-|
D|-----x--------------x--------------x---------------x---------|
A|-----x--------------x--------------x---------------x---------|
E|-3---x-----2--5--3--x-----2--5--6--x-----5--8---6--x-------5-|
   call Or get in touch       And  beats the out of that   Now... 
            back               nothing     hell



Chorus

D#               D            Gm
I should hear a little from you 
         Cm
What you do 
D#               D            Gm
I should hear a little from you
D#               D
I should hear a little 
Gm               F
I should hear a little
D#               D            Gmin9
I should hear a little from you


e|---------5---6------10--8--6--5----------5---6--------|
B|-8-------------8-----------------8--------------8---7-|
G|------7-------------------------------7---------------|
D|------------------------------------------------------|
A|------------------------------------------------------|
E|------------------------------------------------------|
    Ouhouhouhouh......



Final Chorus

D#               D            Gm
I should hear a little from you
         Cm
what you do
D#               D            Gm
I should hear a little from you
D#               D
I should hear a little 
Gm               F
I should hear a little
D#               D            Gm
I should hear a little from you



D#               D            Gm
I should hear a little from you
         Cm
what you do
D#               D            Gm
I should hear a little from you
D#               D
I should hear a little 
Gm               F
I should hear a little
D#               D            Gm
I should hear a little from you


End on Gm
Tap to rate this tab
# A B C D E F G H I J K L M N O P Q R S T U V W X Y Z