Guitaretab - guitar tabs
Song name
# A B C D E F G H I J K L M N O P Q R S T U V W X Y Z
Home / P / Puggy / Dubois tab

Puggy - Dubois tab

Tabbed by:Oli
Email:ORS624@bham.ac.uk

www.puggyband.com

Tuning:DADGBe
Saw these guys supporting Incubus at the NEC in september, blew me back, so I got the 
This is the opening track. I may put the riff up on youtube as it is a little complicated 
get the timing right.

Enjoy
FTW

e|------0------3------0-----0-------------------------------------|
B|------3------3------7-----7-------------------------------------|
G|------2------2------6-----6-------------------------------------|
D|--0---0---0--0--0---0--0--0-------------------------------------|
A|--0---0---0--0--0---0--0--0-------------------------------------|
D|--0-------0-----0------0----------------------------------------|

e|----------------------------------------------------------------------|
B|----6----10\8-----6-(0)-------6----10\8----11-------------------------|
G|--------------------(0)------------------------(12)-------------------|   X3
D|------(0)------------(0)-0------(0)-----------------------------------|
A|--5---(0)--------5------0---5--(0)-------10---------------------------|
D|-----------------------0----------------------------------------------|
   Dubois died today..


e|-------------------------------------------------------------------|
B|----6----10\8-----6-(0)-----6--5--6--------------------------------|
G|--------------------(0)--------------------------------------------|
D|------(0)------------(0)-0-----------------------------------------|
A|--5---(0)--------5------0---5--4--5--------------------------------|
D|-----------------------0-------------------------------------------|
What was it for..

e|--0-0-0-0---------------------------------------------------------|
B|--3-3-3-3---------------------------------------------------------|
G|--2-2-2-2---------------------------------------------------------|
D|--0-0-0-0--7-7-7-7-8-8-8-8-5-5-5-5--------------------------------| X4
A|--0-0-0-0--7-7-7-7-8-8-8-8-5-5-5-5--------------------------------|
D|--0-0-0-0--7-7-7-7-8-8-8-8-5-5-5-5--------------------------------|
   (leave some open strings in if you wish)

e|----------------------------------------------------------------------|
B|----6----10\8-----6-(0)-------6----10\8----11-------------------------|
G|--------------------(0)------------------------(12)-------------------|   X3
D|------(0)------------(0)-0------(0)-----------------------------------|
A|--5---(0)--------5------0---5--(0)-------10---------------------------|
D|-----------------------0----------------------------------------------|
   Dubois died today..


e|-------------------------------------------------------------------|
B|----6----10\8-----6-(0)-----6--5--6--------------------------------|
G|--------------------(0)--------------------------------------------|
D|------(0)------------(0)-0-----------------------------------------|
A|--5---(0)--------5------0---5--4--5--------------------------------|
D|-----------------------0-------------------------------------------|
What was it for..

e|--0-0-0-0---------------------------------------------------------|
B|--3-3-3-3---------------------------------------------------------|
G|--2-2-2-2---------------------------------------------------------|
D|--0-0-0-0--7-7-7-7-8-8-8-8-5-5-5-5--------------------------------| X4
A|--0-0-0-0--7-7-7-7-8-8-8-8-5-5-5-5--------------------------------|
D|--0-0-0-0--7-7-7-7-8-8-8-8-5-5-5-5--------------------------------|


Bass solo (second part of it)

e|------------------------------------------------------------------|
B|---6--------------6---------------6-------------6-----------------|
G|---7--------------7---------------7-------------7-----------------|
D|------------------------------------------------------------------|
A|---5--------------5---------------5-------------5-----------------| X2
D|-0---6/7-6/7----0---6/7-6/7----0----6/7-6/7---0---6/7-6/7---------|
 (end second time stumming D minor at speed)
[ Tab from: http://www.guitaretab.com/p/puggy/96764.html ]
e|------0-0------3-15-----0--0----0--0------------------------------------|
B|------3-15-----3-15-----7-19----7-19------------------------------------|
G|------2-14-----2-14-----6-18----6-18------------------------------------|
D|--0---0-----0--0----0---0----0--0---------------------------------------|
A|--0---0-----0--0----0---0----0--0---------------------------------------|
D|--0---------0-------0--------0------------------------------------------|


e|-----------------------------------------------------------------|
B|----6----10\8-----6-(0)-------6----10\8----11--------------------|
G|--------------------(0)------------------------(12)--------------|   X3
D|------(0)------------(0)-0------(0)------------------------------|
A|--5---(0)--------5------0---5--(0)-------10----------------------|
D|-----------------------0-----------------------------------------|
   Dubois died today..


e|---------------------------------------------------------------|
B|----6----10\8-----6-(0)-----6--5--6----------------------------|
G|--------------------(0)----------------------------------------|
D|------(0)------------(0)-0-------------------------------------|
A|--5---(0)--------5------0---5--4--5----------------------------|
D|-----------------------0---------------------------------------|
What was it for..

e|--0-0-0-0-----------------------------------------------------|
B|--3-3-3-3-----------------------------------------------------|
G|--2-2-2-2-----------------------------------------------------|
D|--0-0-0-0--7-7-7-7-8-8-8-8-5-5-5-5----------------------------| X4
A|--0-0-0-0--7-7-7-7-8-8-8-8-5-5-5-5----------------------------|
D|--0-0-0-0--7-7-7-7-8-8-8-8-5-5-5-5----------------------------|


e|--0-0-0-0------------------------------------------------------|
B|--3-3-3-3------------------------------------------------------|
G|--2-2-2-2------------------------------------------------------|
D|--0-0-0-0--7-7-7--8-8-8-8-5-5-5-5------------------------------| X2
A|--0-0-0-0--7-7-7--8-8-8-8-5-5-5-5------------------------------|
D|--0-0-0-0--7-7-7--8-8-8-8-5-5-5-5------------------------------|

e|--0-0-0-0-------------------------------------------------------|
B|--3-3-3-3-------------------------------------------------------|
G|--2-2-2-2-------------------------------------------------------|
D|--0-0-0-0--7-7-7--8-8-8--5-5-5----------------------------------|
A|--0-0-0-0--7-7-7--8-8-8--5-5-5----------------------------------|
D|--0-0-0-0--7-7-7--8-8-8--5-5-5----------------------------------|

e|--0-0-0-0--------------------------------------------------------|
B|--3-3-3-3--------------------------------------------------------|
G|--2-2-2-2--------------------------------------------------------|
D|--0-0-0-0--7-7-7--8--8--8--5--5--5-------------------------------|
A|--0-0-0-0--7-7-7--8--8--8--5--5--5-------------------------------|
D|--0-0-0-0--7-7-7--8--8--8--5--5--5-------------------------------|


e|------------------------------------------------------------------|
B|---6--------------6---------------6-------------6-----------------|
G|---7--------------7---------------7-------------7-----------------|
D|------------------------------------------------------------------|
A|---5--------------5---------------5-------------5-----------------| X2
D|-0---6/7-6/7----0---6/7-6/7----0----6/7-6/7---0---6/7-6/7---------|


e|-----------------------------------------------------------------------------|
B|-7-6-7----7-6-7--7-6-7----7-6-7----------------------------------------------|
G|-----------------------------------------------------------------------------|
D|-----------------------------------------------------------------------------|
A|-5-4-5----5-4-5--5-4-5----5-4-5----------------------------------------------|
D|-----------------------------------------------------------------------------|

| /  slide up
| \  slide down
| h  hammer-on
| p  pull-off
| ~  vibrato
| +  harmonic
| x  Mute note
Related for Dubois tab