Song name
# A B C D E F G H I J K L M N O P Q R S T U V W X Y Z

Puhdys - Boote Der Jugend tab

Puhdys - Boote Der Jugend

2x E D G D

oder

Tab1
E|--------------------------------------------------------|
A|--------------------------------------------------------|
D|--------------------------------------------------------|
G|--------------------------------------------------------|
H|--8--10-----10--8--10-----8--10-----10--8--7--8---------|
E|---------7-----------------------7----------------------|

      E           D          C        G             D C G
1. Es gibt manche Leute, die haben vergessen
     E            D        C         G              D C G
dass sie einst im Boot der Jugend gesessen,
   D       G      C         G                       D C G
in dem sie fuhren gegen die Flut,
               D                 C       G
mit Segeln aus Jeans und Rock 'n Roll im Blut.


2x E D G D oder Tab1

        E             D          C     G            D C G
2. Heut liegen sie an Stegen der Intoleranz,
    E          D         C           G              D C G
betrachten die Boote aus sichrer Distanz
    D         G            C           G            D C G
und zeigen verächtlich mit Fingern auf sie,
               D              C         G           G C G
verkünden, die Jugend sei verdorben wie nie.


           D            G               C           G
Ref.: Noch vor ein paar Jahren, als sie selber jung waren,
        C             G       E         D  G   (schnell greifen)
sie die Freiheit sich nahmen, anders zu se_ein,
D        G       C            G                     D C G
doch das gleiche Recht räumen sie
    E          D     C            G
der Jugend von heute leider nicht ein.


2x E D G D oder Tab1

         E           D            C      G          D C G
3. Einst war'n sie Rebellen gegen Spießigkeit,
    E             D      C     G                    D C G
sie sprengten die Normen ihrer Zeit,
    D         G            C         G              D C G
sie hatten Ideale und auch manches Idol,
              D           C           G             G C G
und ihren Habitus machten sie zum Symbol.


           D            G               C           G
Ref.: Noch vor ein paar Jahren, als sie selber jung waren,
        C             G       E         D  G   (schnell greifen)
sie die Freiheit sich nahmen, anders zu se_ein,
D        G       C            G                     D C G
doch das gleiche Recht räumen sie
    E          D     C            G
der Jugend von heute leider nicht ein.


Solo

       E           D      C            G            D C G
4. Sie denken heut leider nicht mehr daran,
     E             D    C   G                       D C G
dass sie Wellen schlugen im Ozean,
     D        G          C     G                    D C G
gestrandet am Ufer, Kapitäne a.D.,
              D             C         G             G C G
die Boote der Jugend fahren weiter zu See.

3x E D G D      1x E D G

oder

Tab1
E|--------------------------------------------------------|
A|--------------------------------------------------------|
D|--------------------------------------------------------|
G|--------------------------------------------------------|
H|--8--10-----10--8--10-----8--10-----10--8--7--8---------|
E|---------7-----------------------7----------------------|

&

Tab2
E|--------------------------------------------------------|
A|--------------------------------------------------------|
D|--------------------------------------------------------|
G|--------------------------------------------------------|
H|--8--10-----10--8--10-----8--10-----10--8--10--8--7--8--|
E|---------7-----------------------7----------------------|



Habe die Akkorde von diesem Video: https://www.youtube.com/watch?v=jkJf-Q9UftA

Die letzten Strophen habe ich herausgehört und das ganze dann um die Tabs erweitert. 
Hoffe das stimmt soweit...
Tap to rate this tab
# A B C D E F G H I J K L M N O P Q R S T U V W X Y Z