Guitaretab - guitar tabs
Song name
# A B C D E F G H I J K L M N O P Q R S T U V W X Y Z

Pull Tiger Tail - Animator tab

INTRO
E--------------------------------------------------------------|
B--------------------------------------------------------------|
G---9/11/9-9--}  --9/11---9/11--13-13-13-13-13-13-13-13--------|
D---9/11/9-9--}X2--9/11---9/11--13-13-13-13-13-13-13-13--------|   all X4
A---7/9 /7-7--}  --7/9----7/9---11-11-11-11-11-11-11-11--------|
E--------------------------------------------------------------|

VERSE
E--------------------------------------------|
B--------------------------------------------|
G-9-9-9-9-9-9-9-9-9-11-11-11-11-11-11-11-11--|
D-9-9-9-9-9-9-9-9-9-11-11-11-11-11-11-11-11--|
A-7-7-7-7-7-7-7-7-7-9--9--9--9--9--9--9--9---|
E--------------------------------------------|

E-------------------------------------------------|
B-------------------------------------------------|
G-13-13-13-13-13-13-13-13-14-14-14-14-14-14-14-14-|
D-13-13-13-13-13-13-13-13-14-14-14-14-14-14-14-14-|    ALL X4
A-11-11-11-11-11-11-11-11-12-12-12-12-12-12-12-12-|
E-------------------------------------------------|

CHORUS
E-------------------------------------------------------------------------|
B-------------------------------------------------------------------------|
G-9-9-9-9-9-9-9-9-11-11-11-11-11-11-11-11-9-9-9-9-9-9-9-9-----------------|
D-9-9-9-9-9-9-9-9-11-11-11-11-11-11-11-11-9-9-9-9-9-9-9-9-----------------|
A-7-7-7-7-7-7-7-7-9--9--9--9--9---9--9--97-7-7-7-7-7-7-7-----------------|
E-------------------------------------------------------------------------|

E-------------------------------------------------------------------------|
B-------------------------------------------------------------------------|
G-13-13-13-13-13-13-13-13-9-9-9-9-9-9-9-9-11-11-11-11-11-11-11-11---------|
D-13-13-13-13-13-13-13-13-9-9-9-9-9-9-9-9-11-11-11-11-11-11-11-11---------|
A-11-11-11-11-11-11-11-11-7-7-7-7-7-7-7-7-9-9--9-9-9--9-9-9---------|
E-------------------------------------------------------------------------|

E--------------------------------------------------------------|
B--------------------------------------------------------------|
G---9/11/9-9--}  --9/11---9/11--13-13-13-13-13-13-13-13--------|
D---9/11/9-9--}X2--9/11---9/11--13-13-13-13-13-13-13-13--------|   X2
A---7/9 /7-7--}  --7/9----7/9---11-11-11-11-11-11-11-11--------|
E--------------------------------------------------------------|

VERSE
E--------------------------------------------------------------------|
B--------------------------------------------------------------------|
G----------9-----------------11--------------------------------------|X2
D-------9------9--------11--------11---11----11-----13---13-------13-|
A----7----------------9-------------------12------------------14-----|
E--------------------------------------------------------------------|

Chorus
E--------------------------------------------------------------------------|
B--------------------------------------------------------------------------|
G-9-9-9-9-9-9-9-9-11-11-11-11-11-11-11-11--9-9-9-9-9-9-9-9-----------------|
D-9-9-9-9-9-9-9-9-11-11-11-11-11-11-11-11--9-9-9-9-9-9-9-9-----------------|
A-7-7-7-7-7-7-7-7-9---9--9--9--9--9--9--9-7-7-7-7-7-7-7-7-----------------|
E--------------------------------------------------------------------------|

E--------------------------|
B--------------------------|
G-13-13-13-13-13-13-13-13--|                  X3
D-13-13-13-13-13-13-13-13--|
A-11-11-11-11-11-11-11-11--|
E--------------------------|

E--------------------------------------------------------------------------|
B--------------------------------------------------------------------------|
G-9-9-9-9-9-9-9-9-11-11-11-11-11-11-11-11----------------------------------|
D-9-9-9-9-9-9-9-9-11-11-11-11-11-11-11-11----------------------------------|
A-7-7-7-7-7-7-7-7-9---9--9--9--9--9--9--9----------------------------------|
E--------------------------------------------------------------------------|

E------------------------------------------------------------------------|
B------------------------------------------------------------------------|
G---9/11/9----9--}  ------9/11----9/11-----------------------------------|
D---9/11/9----9--}X2------9/11----9/11-----------------------------------|
A---7/9 /7----7--} -------7/9-----7/9------------------------------------|
E------------------------------------------------------------------------|
[ Tab from: http://www.guitaretab.com/p/pull-tiger-tail/94435.html ]
E--------------------------------------------------------------------------|
B--------------------------------------------------------------------------|
G-9-9-9-9-9-9-9-9-11-11-11-11-11-11-11-11--9-9-9-9-9-9-9-9-----------------|
D-9-9-9-9-9-9-9-9-11-11-11-11-11-11-11-11--9-9-9-9-9-9-9-9-----------------|
A-7-7-7-7-7-7-7-7-9---9--9--9--9--9--9--9-7-7-7-7-7-7-7-7-----------------|
E--------------------------------------------------------------------------|

E--------------------------|
B--------------------------|
G-13-13-13-13-13-13-13-13--|
D-13-13-13-13-13-13-13-13--|
A-11-11-11-11-11-11-11-11--|
E--------------------------|


E------------------------------------------|
B------------------------------------------|
G-9-9-9-9-9-9-9-9-11-11-11-11-11-11-11-11--|
D-9-9-9-9-9-9-9-9-11-11-11-11-11-11-11-11--|
A-7-7-7-7-7-7-7-7-9--9--9--9---9--9--9--9--|
E------------------------------------------|


E------------------------------------------------------------------|
B------------------------------------------------------------------|
G-9-9-9-9--11-11-11-11-13-13-13-13-13-13-13-13---------------------|
D-9-9-9-9--11-11-11-11-13-13-13-13-13-13-13-13---------------------|X2
A-7-7-7-7--9--9--9--9--11-11-11-11-11-11-11-11---------------------|
E------------------------------------------------------------------|


E----------------------------------------------------------------|
B----------------------------------------------------------------|
G         -13------11----14--------------------------------------|
D strum   -13------11----14--------------------------------------|    X4
A         -11------9-----12--------------------------------------|
E----------------------------------------------------------------|


E--------------------------------------------------------------------------|
B--------------------------------------------------------------------------|
G-9-9-9-9-9-9-9-9-11-11-11-11-11-11-11-11--9-9-9-9-9-9-9-9-----------------|
D-9-9-9-9-9-9-9-9-11-11-11-11-11-11-11-11--9-9-9-9-9-9-9-9-----------------|
A-7-7-7-7-7-7-7-7-9---9--9--9--9--9--9--9-7-7-7-7-7-7-7-7-----------------|
E--------------------------------------------------------------------------|


E--------------------------------------------------------------------------|
B--------------------------------------------------------------------------|
G-9-9-9-9-9-9-9-9-11-11-11-11-11-11-11-11----------------------------------|
D-9-9-9-9-9-9-9-9-11-11-11-11-11-11-11-11-----13-14-13--13-14-13-----------|
A-7-7-7-7-7-7-7-7-9--9--9--9--9--9---9--9-----11-12-11--11-12-12-----------|
E--------------------------------------------------------------------------|


E--------------------------------------------------------------------------|
B--------------------------------------------------------------------------|
G-9-9-9-9-9-9-9-9-11-11-11-11-11-11-11-11--9-9-9-9-9-9-9-9-----------------|
D-9-9-9-9-9-9-9-9-11-11-11-11-11-11-11-11--9-9-9-9-9-9-9-9-----------------|
A-7-7-7-7-7-7-7-7-9--9---9--9--9--9--9--9-7-7-7-7-7-7-7-7-----------------|
E--------------------------------------------------------------------------|

E--------------------------|
B--------------------------|
G-13-13-13-13-13-13-13-13--|
D-13-13-13-13-13-13-13-13--|
A-11-11-11-11-11-11-11-11--|
E--------------------------|


E------------------------------------------|
B------------------------------------------|
G-9-9-9-9-9-9-9-9-11-11-11-11-11-11-11-11--|
D-9-9-9-9-9-9-9-9-11-11-11-11-11-11-11-11--|
A-7-7-7-7-7-7-7-7-9--9--9--9--9--9--9--9---|
E------------------------------------------|

E                     ----------------------------------------|
B                     ----------------------------------------|
G (Fast Strumming     -13-11-14-13-9----8-8b-8b-8b-8b-8b-9-11-|
D  Using These Chords)-13-11-14-13-9----8-8b-8b-8b-8b-8b-9-11-|
A  Listen to Track    -11-9--12-11-7----6-6b-6b-6b-6b-6b-7--9-|
E                     ----------------------------------------|


OUTRO

E--------------------------------------------------------------|
B--------------------------------------------------------------|
G---9/11/9-9--}  --9/11---9/11--13-13-13-13-13-13-13-13--------|
D---9/11/9-9--}X2--9/11---9/11--13-13-13-13-13-13-13-13--------|   all X2
A---7/9 /7-7--}  --7/9----7/9---11-11-11-11-11-11-11-11--------|
E--------------------------------------------------------------|


E---------------|
B---------------|
G-14-14---9~~~--|
D-14-14---9~~~--|
A-12-12---7~~~--|
E---------------|
Related for Animator tab