Song name
# A B C D E F G H I J K L M N O P Q R S T U V W X Y Z

Pulled Apart By Horses - I Punched A Lion In The Throat tab

Artist: Pulled Apart By Horses
  Song: I Punched A Lion In The Throat

Tabbed By Dantallica

Tuning: D A D G B E

Legend

b  - bend
~  - vibrato
pb - prebend
r  - release bend
/\ - slides (self explanatory)
h  - hammer on
p  - pull off
PM - Palm Mute
g  - grace note
ph - pinch harmonic
tr - trill
=  - tremelo pick
.  - Stoccato/Palm Mute


Intro/Main Riff
|-----------------------------------------------------||------------------------------------------|
|-----------------------------------------------------||------------------------------------------|
|-----------------------------------------------------||------------------------------------------|
|-----------------------------------------------------||------------------------------------------|
|---------------------------------------------0h10h13-||------------------------------------------|
|/12--12-12--12--12-12--12--12-12--12-0h10h13---------||-12-12--12--12-12--12--10p0-10p0-10p0-10p0|

Chorus
|-------------------------------------------------------------------------|
|-------------------------------------------------------------------------|
|-------------------------------------------------------------------------|
|-11--11-12-12-12-11--11-11-11--9-11--11-12-12-12-11--11------------------|
|--0---0--0--0--0--0---0--0--0--0--0---0--0--0--0--0---0----------0h10h13-|
|---------------------------------------------------------0h10h13---------|

|---------------------------------------------------------------------------------------|
|---------------------------------------------------------------------------------------|
|---------------------------------------------------------------------------------------|
|-11--11-12-12-12-11--11-11-11--9-11--11-12-12-12---------------------------------------|
|--0---0--0--0--0--0---0--0--0--0--0---0--0--0--0---10-10-10-10-10-10-10-10-10-10-10-10-|
|---------------------------------------------------10-10-10-10-10-10-10-10-10-10-10-10-|

Breakdown
|------------------------------------------|
|------------------------------------------|
|------------------------------------------|
|------------------------------------------|
|-12-0-3-0-5-0-6-0-7-0-8-8-8-0-3-3-3-0-5-6-|
|-12-0-3-0-5-0-6-0-7-0-8-8-8-0-3-3-3-0-5-6-|

Solo

|----------------------------------------------------|
|----------------------------------------------------|
|-7-7-7-7-8-8-8-8-9-9-9-9-10-10-10-10-12-12b-12b-12b-| X3 then
|----------------------------------------------------|
|----------------------------------------------------|
|----------------------------------------------------|

|-10-10-10-10-11-11-11-11-12-12-12-12-13131313141414141515151517171717 X\-|
|-------------------------------------------------------------------------|
|-------------------------------------------------------------------------|
|-------------------------------------------------------------------------|
|-------------------------------------------------------------------------|
|-------------------------------------------------------------------------|
Tap to rate this tab
# A B C D E F G H I J K L M N O P Q R S T U V W X Y Z