Song name
# A B C D E F G H I J K L M N O P Q R S T U V W X Y Z

Pulled Apart By Horses - High Five Swan Dive Nose Dive tab

BAND: PULLED APART BY HORSES
TRACK: HIGH FIVE, SWAN DIVE, NOSE DIVE
TUNING: DROP D (DADGBe)
TABEEEE: JIMBO WAHOO

www.pulledapartbyhorses.com
www.myspace.com/pulledapartbyhorses


INTRO
e|-------------------------------------------------------|
B|-------------------------------------------------------|
G|-------------------------------------------------------|
D|-------------------------------------------------------| X 4
A|-9h12-9h12-9h12-9-------9h12-9h12-9h12-14h12-----------|
D|-0--0-0--0-0--0-0-14----0--0--0--0--0--0--0------------|


e|-------------------------------------------------------|
B|-------------------------------------------------------|
G|-------------------------------------------------------|
D|-9-9-9-9-9-9-9-1010------------------------------------| Tenth Fret.
A|-9-9-9-9-9-9-9-1010------------------------------------|
D|-9-9-9-9-9-9-9-1010------------------------------------|

VERSE
(high five! swan dive! nose dive!)
e|-------------------------------------------------------|
B|-------------------------------------------------------|
G|-------------------------------------------------------|
D|-------------------------------------------------------|
A|-9h12-9h12-9h12-14-12-9h12-9h12-9h12-9-----------------|
D|-0--0-0--0-0--0-0--0--0--0--0--0--0--0-14--------------|

                                                             X3
(i'll make you dance with my balls of fire!!)
e|-------------------------------------------------------|
B|-------------------------------------------------------|
G|-------------------------------------------------------|
D|-9-9-9-9-9-9-9-1010------------------------------------|
A|-9-9-9-9-9-9-9-1010------------------------------------|
D|-9-9-9-9-9-9-9-1010------------------------------------|


Next Bit

e|-------------------------------------------------------|
B|-3-3-3-3h2-2-2-----------------------------------------|
G|-4-4-4-4h3-3-3-----------------------------------------|
D|-5-5-5-5h4-4-4-2h02h0----------------------------------|
A|-5-5-5-5h4-4-4-2h02h0----------------------------------|
D|-5-5-5-5h4-4-4-2h02h0----------------------------------|

                                                           X8
e|-------------------------------------------------------|
B|-------------------------------------------------------|
G|-------------------------------------------------------|
D|-9-9-9-9-9-9-9-1010------------------------------------|
A|-9-9-9-9-9-9-9-1010------------------------------------|
D|-9-9-9-9-9-9-9-1010------------------------------------|


WIDDLY BIT

e|-------------------------------------------------------|
B|-------------------------------------------------------|
G|-11h14-11h14-11h14-11----11h14-11h14-11h14-16h14-------|
D|---------------------14--------------------------------|  X16
A|-------------------------------------------------------|
D|-------------------------------------------------------|

HUH!! (GO MENTAL!!)

e|-------------------------------------------------------|
B|-------------------------------------------------------|
G|-------------------------------------------------------|
D|-4h6-4h6-4h6-4h6---------------------------------------|
A|-4h6-4h6-4h6-4h6---------------------------------------|
D|-4h6-4h6-4h6-4h6---------------------------------------|

(may be wrong but i think one guitar is playing this)

e|-------------------------------------------------------|
B|-------------------------------------------------------|
G|-------------------------------------------------------|
D|-------------------------------------------------------|
A|-------------------------------------------------------|
D|-4h6-4h6-4h6-3-0--4h6-4h6-4h6 9-7----------------------|


END (i'll make you dance....) slow
e|-------------------------------------------------------|
B|-------------------------------------------------------|
G|-------------------------------------------------------|
D|-9-9-9-9-9-9-9-1010------------------------------------|
A|-9-9-9-9-9-9-9-1010------------------------------------|
D|-9-9-9-9-9-9-9-1010------------------------------------|
Tap to rate this tab
 
# A B C D E F G H I J K L M N O P Q R S T U V W X Y Z