Song name
# A B C D E F G H I J K L M N O P Q R S T U V W X Y Z

Pulled Apart By Horses - Meat Balloon tab

Pulled Apart By Horses
Meat Balloon

This is just a rough guide to the song, some of the little
licks over the verse aren't tabbed, I haven't always tabbed
out the exact amount of time that you need to play each note, 
and in the chorus you sort of push to the next note (i.e. start
it just before the next bar begins). enjoy!

Introduction
       Play four times
E|---|------------------|
B|---|------------------|
G|---|------------------|
D|---|------------------|
A|---|------------------|
D|-3-|-7-7-7-7-7-7-7\3/-|


Verse x4
E|---------|---------|-----------|---------|
B|---------|---------|-----------|---------|
G|---------|---------|-----------|---------|
D|---------|---------|-----------|---------|
A|---------|---------|-3-3-----3-|---------|
D|-7-7-7-7-|-7-7-7-7-|-----5-5---|-5-5-3-3-|


Chorus
E|---------|---------|---------|---------|
B|---------|---------|---------|---------|
G|---------|---------|---------|---------|
D|---------|---------|---------|---------|
A|---------|---------|---------|---------|
D|-2-2-2-2-|-2-2-2-2-|-1-1-1-1-|-6-6-4-4-|

E|---------|---------|---------|---------|
B|---------|---------|---------|---------|
G|---------|---------|---------|---------|
D|---------|---------|---------|---------|
A|---------|---------|---------|---------|
D|-2-2-2-2-|-2-2-2-2-|-1-1-1-1-|---------|


Verse x 4


Chorus
E|---------|---------|---------|---------|
B|---------|---------|---------|---------|
G|---------|---------|---------|---------| 
D|---------|---------|---------|---------| x3
A|---------|---------|---------|---------|
D|-2-2-2-2-|-2-2-2-2-|-1-1-1-1-|-6-6-4-4-|

E|---------|---------|---------|---------|
B|---------|---------|---------|---------|
G|---------|---------|---------|---------|
D|---------|---------|---------|---------|
A|---------|---------|---------|---------|
D|-2-2-2-2-|-2-2-2-2-|-1---1---|-1---1---|


Guitar cuts out for a bit (we are so macho we are mind control...)

E|---------|---------|---------|-----------|
B|---------|---------|---------|-----------|
G|---------|---------|---------|-----------|
D|---------|---------|---------|-----------|
A|-7-7-7-7-|-7-7-7-7-|-6-6-6-6-|-11-11-9-9-|
D|---------|---------|---------|-----------|

After 4 times guitar 2 comes in with this over the top,
play the notes really fast, couldn't be bothered to type
them all out, also bend the first note of each bar a little

E|----------|-------------|----------8-|-9-9-9-11-|
B|----------|----------10-|-11-11-11---|----------|
G|-7-7-7-11-|-12-12-12----|------------|----------|
D|----------|-------------|------------|----------|
A|----------|-------------|------------|----------|
D|----------|-------------|------------|----------|

E|-12-12-12-14-|-15-15-15-17-|-18-18-18-20-|-21-21-21-21-|
B|-------------|-------------|-------------|-------------|
G|-------------|-------------|-------------|-------------|
D|-------------|-------------|-------------|-------------|
A|-------------|-------------|-------------|-------------|
D|-------------|-------------|-------------|-------------|


RIFFFFFF
only play the notes in brackets the first time round,
a bit unsure about the third bar

E|--------|--------|-------------|------|------|------|
B|--------|--------|-------------|------|------|------|
G|--------|--------|-------------|------|------|------|
D|--------|--------|-------------|------|------|------|
A|--------|--------|-------3-4-5-|------|------|-2~---|
D|-5--2(2)|-5--2(2)|-5-6-7-------|-5--2-|-5--2-|------|

E|------|------|-------------|------|---------|
B|------|------|-------------|------|---------|
G|------|------|-------------|------|---------|
D|------|------|-------------|------|---------|
A|------|------|-------3-4-5-|------|---------|   x3
D|-5--2-|-5--2-|-5-6-7-------|-5--2-|-1-1-4-4-|


End
E|---------|---------|---------|-----------|
B|---------|---------|---------|-----------|
G|---------|---------|---------|-----------|
D|---------|---------|---------|-----------|
A|-7-7-7-7-|-7-7-7-7-|-6-6-6-6-|-11-11-9-9-|
D|---------|---------|---------|-----------|

E|---------|---------|---------|-----------|
B|---------|---------|---------|-----------|
G|---------|---------|---------|-----------|
D|---------|---------|---------|-----------|
A|-7-7-7-7-|-7-7-7-7-|-6-6-6-6-|-11\-------|
D|---------|---------|---------|-----------|
Tap to rate this tab
# A B C D E F G H I J K L M N O P Q R S T U V W X Y Z