Song name
# A B C D E F G H I J K L M N O P Q R S T U V W X Y Z

Pulled Apart By Horses - The Crapsons tab

Artist: Pulled Apart By Horses
  Song: The Crapsons

Tabbed By Dantallica

Tuning: D A D G B E

Legend

b  - bend
~  - vibrato
pb - prebend
r  - release bend
/\ - slides (self explanatory)
h  - hammer on
p  - pull off
PM - Palm Mute
g  - grace note
ph - pinch harmonic
tr - trill
=  - tremelo pick
.  - Stoccato/Palm Mute


Intro
|-----------------------------------------------------|
|-----------------------------------------------------|
|-----------------------------------------------------|
|-7/8-8--7/8-8--7/8-8--7/8-8--------------------------|
|-5/6-6--5/6-6--5/6-6--5/6-6--------------------------|
|-----------------------------------------------------|

Riff 1
|-------------------------------------|
|-------------------------------------|
|-------------------------------------|
|-7-7-7-5-5-5---------1p0-----1p0-----|
|-------------6-6-6-------3p0-----3p0-|
|-------------------------------------|

Riff 2
|--------------------------|
|--------------------------|
|--------------------------|
|--------------------------|
|---10----10----6-----6----|
|-7----77----73----33---3--|

Riff 3 
"And everytime..."
|---------------------------------------|--------|
|---------------------------------------|--------|
|---------------------------------------|--------|Let ring
|---------------------------------------|--------|before 
|-0-3-5--0-3-5--0-3-5--3h555-3h555------|-0~-----|breakdown
|-0-3-5--0-3-5--0-3-5-------------------|-0~-----|
  . . .  . . .  . . .  . ... . ...

Breakdown                              End
|-------------------------------------|-----------------------------------------|
|-------------------------------------|-----------------------------------------|
|-------------------------------------|-----------------------------------------|
|-------------------------------------|-----------------------------------------|
|-12-0--0--5-6-7-10-12-0--0-12h13-13--|-12h13-13-12h13-13-12h13-13-12h13-13-13\-|
|-12-0--0--5-6-7-10-12-0--0-12h13-13--|-12h13-13-12h13-13-12h13-13-12h13-13-13\-|
Tap to rate this tab
# A B C D E F G H I J K L M N O P Q R S T U V W X Y Z