Song name
# A B C D E F G H I J K L M N O P Q R S T U V W X Y Z

Pulled Apart By Horses - The Lighthouse tab

Artist: Pulled Apart By Horses
  Song: The Lighthouse
Tabbed By Dantallica

Tuning: E A D G B e

Legend

b  - bend
~  - vibrato
pb - prebend
r  - release bend
/\ - slides (self explanatory)
h  - hammer on
p  - pull off
PM - Palm Mute
g  - grace note
ph - pinch harmonic
tr - trill
 T - tremelo pick
.  - Stoccato/Palm Mute


Intro/Main Riff
|---------------------------------------------------|
|---------------------------------------------------|
|---------------------------------------------------|
|---7-7-----7-7--------------7-7-----7-7--7p5-------|
|-0-------0-----------5h6--0-------0----------6p5---|
|-----------------5h6-------------------------------|

Riff 2
|----------------------------------|---------------------------------|
|----------------------------------|---------------------------------|
|----------------------------------|---------------------------------|
|----------------------------------|---------------------------------|
|---------2-----------2------------|-------2-----------2-------------|
|-2-0-2-3---3-2-0-2-3---3-2-0-2-3~~|-0-2-3---3-2-0-2-3---3-2-0-2-3~~-|

Lead 1
  T          T         T         T  T   T
|-12--------15--------17--------19--20--21----------|
|---------------------------------------------------|
|---------------------------------------------------|
|---------------------------------------------------|
|---------------------------------------------------|
|---------------------------------------------------|
  Tremelo picking  (Riff 2 played underneath)

Outro
|-------------------------------------------|
|-------------------------------------------|
|----------------1010----------------8888---|
|---7-7-----7-7--8888---7-7-----7-7--6666---|
|-0-------0-----------0-------0-------------|
|-------------------------------------------|

Song Order:

Intro/Main riff x 4
Riff 2          x 2
Intro/Main Riff x 4
Riff 2          x 2
Lead 1          x 3
Outro Riff      x 4

Tap to rate this tab
 
# A B C D E F G H I J K L M N O P Q R S T U V W X Y Z