Pulled Apart By Horses - Den Horn tab

Artist: Pulled Apart By Horses
  Song: Den Horn

Tuning: D A D G B e

Legend

b  - bend
~  - vibrato
pb - prebend
r  - release bend
/\ - slides (self explanatory)
h  - hammer on
p  - pull off
PM - Palm Mute
g  - grace note
ph - pinch harmonic
tr - trill
 T - tremelo pick
.  - Stoccato/Palm Mute


Bass Intro                        Guitar Intro

   *Fuzz*                       |---------------------------------------------|
                                |---------------------------------------------|
|------------------------------||-------------4------4------4-----4--4----4br-|
|------------------------------||--4------------------------------------------|
|-2-2--2--2---2---3--2-2--2--2-||----3------2------2------2-----2------2------|
|---------------3--------------||------4--------------------------------------|


|-----------------------------------------|-------------------------------------------|
|-----------------------------------------|-------------------------------------------|
|---4------4------4-----4------4----------|----4------4------4-----4------4br(4)br(4)-|
|---------------------------------4-------|-------------------------------------------|
|-2------2------2-----2------2------3-----|--2------2------2-----2--------------------|
|-------------------------------------4---|-------------------------------------------|


|-----------------------------------------|
|-----------------------------------------|
|---4------4------4-----4------4----------|
|---------------------------------4-------|
|-2------2------2-----2------2------3-----|
|-------------------------------------4---|


Chorus

/-----------X3-----------------\
|-------------------------------|---------------------------|
|-------------------------------|---------------------------|
|-------------------------------|---------------6--6--6--6--|
|-------------------------------|---------------4--4--4--4--|
|-7-7-7-7-5-5-0---3-3-3-3h5-5---|-7-7-7-7-5-5-0-------------|
|-7-7-7-7-5-5-0-----------------|-7-7-7-7-5-5-0-------------|

|----------------------------------|
|----------------------------------|
|----4-4----4-4---4----4-4---4br---|
|----------------------------------|
|-22-----22-----22--22-----2-------|
|----------------------------------|


|-----------------------------------------|-------------------------------------------|
|-----------------------------------------|-------------------------------------------|
|---4------4------4-----4------4----------|----4------4------4-----4----4----4--------|
|---------------------------------4-------|-------------------------------------------|
|-2------2------2-----2------2------3-----|--2------2------2-----2---------2----------|
|-------------------------------------4---|-------------------------------------------|

|-----------------------------------------|
|-----------------------------------------|
|---4------4------4-----4------4----------|
|---------------------------------4-------|
|-2------2------2-----2------2------3-----|
|-------------------------------------4---|

/-----------X3-----------------\
|-------------------------------|---------------------------|
|-------------------------------|---------------------------|
|-------------------------------|---------------6--6--6--6--|
|-------------------------------|---------------4--4--4--4--|
|-7-7-7-7-5-5-0---3-3-3-3h5-5---|-7-7-7-7-5-5-0-------------|
|-7-7-7-7-5-5-0-----------------|-7-7-7-7-5-5-0-------------|

Breakdown
|------------------------------------------------------------------|
|------------------------------------------------------------------|
|------------------------------------------------------------------|
|------------------------------------------------------------------| X4
|-0--12\------5--0--12\------5--0--12\-------5-----5-----5-7p5-----|
|-0--12\--3h5----0--12\--3h5----0--12\---3h5---3h5---3h5-------7p5-|


|--------------------|    
|--------------------|  
|-9-9--9-9--9-9--9-9-|    
|--------------------| X8 
|-7-7--7-7--7-7--7-7-|    
|--------------------|    

Breakdown
|------------------------------------------------------------------|
|------------------------------------------------------------------|
|------------------------------------------------------------------|
|------------------------------------------------------------------| X12
|-0--12\------5--0--12\------5--0--12\-------5-----5-----5-7p5-----|
|-0--12\--3h5----0--12\--3h5----0--12\---3h5---3h5---3h5-------7p5-|

|----------------------------------------------|
|----------------------------------------------|
|----------------------------------------------|
|----------------------------------------------|
|-0~-Feedback while bass continues breakdown---|
|-0~-------------------------------------------|


Into breakdown once again...
|------------------------------------------------------------------|    |-----|
|------------------------------------------------------------------|    |-----|
|------------------------------------------------------------------|    |-----|
|------------------------------------------------------------------| X8 |-----|
|-0--12\------5--0--12\------5--0--12\-------5-----5-----5-7p5-----|    |-0~~-|
|-0--12\--3h5----0--12\--3h5----0--12\---3h5---3h5---3h5-------7p5-|    |-0~~-|

A few extra lead parts played over some parts of the riffs but they are simple 
enough to work out! Enjoy!
Tap to rate this tab
 
# A B C D E F G H I J K L M N O P Q R S T U V W X Y Z