Pulled Apart By Horses - Back To The Fuck Yeah tab

Artist: Pulled Apart By Horses
Album: S/T
Song: Back To The Fuck Yeah
Release: 2010

Yeah, none of this song is up at all yet, so I just thought I'd post the little bit of 
intro I could fathom from watching the video.
Drop D

Riff-
e|---------------------------------------------------------------------|
B|---------------------------------------------------------------------|
G|---------------------------------------------------------------------|
D|-12-12--12-0-12-0-12-12--12-0-12-0-12-12--12-0-12-0-12-12--12-0-12-0-|
A|-12-12--12-0-12-0-12-12--12-0-12-0-12-12--12-0-12-0-12-12--12-0-12-0-|
D|-12-12--12-0-12-0-12-12--12-0-12-0-12-12--12-0-12-0-12-12--12-0-12-0-|

After that there's a little bit which I can't really work out properly.
I think it's this, but i'm not sure if it sounds 100%
e|----------------|
B|----------------|
G|----------------|
D|-15-12-15-------|
A|----------12-15-|
D|----------------|

I'm pretty sure the main riff there's right, but for the bit afterwards, not really. 
with any help for the rest of the song should post it or get in touch please, I know I'd 
want to play this song.
Tap to rate this tab
 
# A B C D E F G H I J K L M N O P Q R S T U V W X Y Z