Song name
# A B C D E F G H I J K L M N O P Q R S T U V W X Y Z

Pulled Apart By Horses - Back To The Fuck Yeah tab

BAND: PULLED APART BY HORSES
TRACK: BACK TO THE FUCK YEAH
TUNING: DROP D (DADGBe)
TABEEEE: JIMBO WAHOO

www.pulledapartbyhorses.com
www.myspace.com/pulledapartbyhorses


INTRO/VERSE
e|-----------------------------------------------------------------------------|
B|-----------------------------------------------------------------------------|
G|-----------------------------------------------------------------------------|
D|-----------------------------------------------------------------------------|X4
A|--------------------------------------------------------------12-15-15-12----|
D|-12--12--12h0-12h0---12--12--12h0-12h0--12--12--12h0-12h0---12------------15-|

CHORUS (YEAHHHHH - *PUNCH SOMETHING!)
e|------------------------------------------|
B|------------------------------------------|
G|-55------------777------------------------|
D|-55--333--777--777------------------------| X 4 REPEAT A ON THE LAST ROUND 
A|-35--333--777--555------------------------|
D|-----333--777-----------------------------|


VERSE
e|-----------------------------------------------------------------------------|
B|-----------------------------------------------------------------------------|
G|-----------------------------------------------------------------------------|
D|-----------------------------------------------------------------------------|X4
A|--------------------------------------------------------------12-15-15-12----|
D|-12--12--12h0-12h0---12--12--12h0-12h0--12--12--12h0-12h0---12------------15-|

CHORUS (YEAHHHHH - *PUNCH SOMETHING!)
e|------------------------------------------|
B|------------------------------------------|
G|-55------------777------------------------|
D|-55--333--777--777------------------------| X 8 REPEAT A ON THE LAST ROUND 
A|-35--333--777--555------------------------|
D|-----333--777-----------------------------|


MIDDLE BIT

BASS

G|-----------------------------------------------------|
D|-----------------------------------------------------| X 4
A|-----------------------------------------------------|
D|--12-(X16)-15-(X16)-8-(X16)-10-(X8)-3-(X4)-2-(X4)----|


JUST FUCK ABOUT WITH THOSE SAME NOTES ON GUITAR FOR THIS BIT, THAT'S WHAT I DO, SOUNDS NICE :)



GET THE ALBUM IF YOU HAVEN'T ALREADY GOT IT, IT'S MORE MACHO THAN A TIN OF CRAB PASTE!!


JIM X
Tap to rate this tab
 
# A B C D E F G H I J K L M N O P Q R S T U V W X Y Z