Pulled Apart By Horses - High Five Swan Dive Nose Dive tab

Pulled Apart By Horses 
High Five Swan Dive Nose Dive.
Dig it.

Intro:
e|------------------------------------------------------------------|
B|------------------------------------------------------------------|
G|------------------------------------------------------------------|
D|------------------------------------------------------------------|
A|-9-12-9-12-9-12-9-0--9--12-9-12-9-12-14-12------------------------|
D|-0-0--0-0--0-0--0-12-0--0--0-0--0-0--0--0-------------------------|


Verse:
"I'll make you dance with my balls on fire"
e|-----------------------------------|
B|-----------------------------------|
G|-11------12------------------------|
D|-9-------10------------------------|
A|-9-------10------------------------|
D|-9-------10------------------------|



"Open up your sleeve let me into you"
e|----------------------------------|
B|----------------------------------|
G|----------------------------------|
D|---5555555-4444444--2220----------|
A|---5555555-4444444--2220----------|
D|---5555555-4444444--2220----------|




e|------------------------------------------------------------------|
B|------------------------------------------------------------------|
G|------------------------------------------------------------------|
D|---16-19-16-19-16-19-16----16-19-16-19-16-19-16-21-19-------------|
A|------------------------19----------------------------------------|
D|------------------------------------------------------------------|



e|------------------------------------------------------------------|
B|------------------------------------------------------------------|
G|------------------------------------------------------------------|
D|---4-7-4-7-4-7-4-0-4-7-4-7-4-7-4-0-4-7-4-7-4-7-4-0----------------|
A|---4-7-4-7-4-7-4-0-4-7-4-7-4-7-4-0-4-7-4-7-4-7-4-0----------------|
D|---4-7-4-7-4-7-4-0-4-7-4-7-4-7-4-0-4-7-4-7-4-7-4-0----------------|


Gotta do the bendies at the end!
e|------------------------------|
B|----15-----18----20-----------|
G|----17b----20b---22b----------|
D|------------------------------|
A|------------------------------|
D|------------------------------|
Tap to rate this tab
 
# A B C D E F G H I J K L M N O P Q R S T U V W X Y Z