Song name
# A B C D E F G H I J K L M N O P Q R S T U V W X Y Z

Pulled Apart By Horses - Back To The Fuck Yeah tab

INTRO/VERSE
e|--------------------------------------------------------------------------|
B|--------------------------------------------------------------------------|
G|--------------------------------------------------------------------------|
D|--------------------------------------------------------------------------|X4
A|---------------------------------------------------------------15-15-12---|
D|-12--12--12h0-12h0---12--12--12h0-12h0--12--12--12h0-12h0---12----------15|

CHORUS 
e|------------------------------------------|
B|------------------------------------------|
G|-55------------777------------------------|
D|-55--333--777--777------------------------| X 4  
A|-35--333--777--555------------------------|
D|-----333--777-----------------------------|

CHORUS - Ending
e|------------------------------------------|
B|------------------------------------------|
G|------------------------------------------|
D|--777-------------------------------------| X 1
A|--777--x16--------------------------------|
D|--777-------------------------------------|


VERSE
e|-----------------------------------------------------------------------------|
B|-----------------------------------------------------------------------------|
G|-----------------------------------------------------------------------------|
D|-----------------------------------------------------------------------------|X4
A|---------------------------------------------------------------15-15-12------|
D|-12--12--12h0-12h0---12--12--12h0-12h0--12--12--12h0-12h0---12----------15---|

CHORUS 
e|------------------------------------------|
B|------------------------------------------|
G|-55------------777------------------------| X4
A|-35--333--777--555------------------------|
D|-----333--777-----------------------------|

CHORUS - Middle
e|------------------------------------------|
B|------------------------------------------|
G|-55------------777------------------------|
D|-55--333--777--777------------------------| X 4  
A|-35--333--777--555---Pause----------------|
D|-----333--777-----------------------------|

CHORUS - Ending
e|------------------------------------------|
B|------------------------------------------|
G|------------------------------------------|
D|--777-------------------------------------| X 1
A|--777--x16--------------------------------|
D|--777-------------------------------------|


MIDDLE BIT 
e|------------------------------------------|
B|------------------------------------------|
G|--7------10-----3------5------------------|
D|--x x16--x--x16-x--x16-x--x16-------------| X 2
A|--5------8------1----=-3------------------|
D|------------------------------------------|


Tap to rate this tab
 
# A B C D E F G H I J K L M N O P Q R S T U V W X Y Z