Song name
# A B C D E F G H I J K L M N O P Q R S T U V W X Y Z

Pulled Apart By Horses - Get Off My Ghost Train tab

Guitar 1 - Verse:
e----------------------------------|
B----------------------------------|
G----------------------------------|
D-0-0-0h8-8-8----------------10h12-|
A-0-0-0h8-8-8---------0h10h12------|
D-0-0-0h8-8-8--0h10h12-------------| (x however many the verse requires)

Guitar 2 - Verse:
e----------------------|
B----------------------|
G-7-7-7-7-7--7-7-7-7-7-|
D-7-7-7-7-7--7-7-7-7-7-|
A-5-5-5-5-5--5-5-5-5-5-|
D----------------------| (x however many for the verse)

Guitar 1 - Chorus:
e-----------------------------------------------------------------|
B-------------------0-3-0-3^3-0------------------12-15-12-15^-----|
G-7-7-7-7-7-7-7-7-7------------7-7-7-7-7-7-7-7-7------------------|
D--[gradual bend]-----------------[gradual bend]------------------|
A-----------------------------------------------------------------|
D-----------------------------------------------------------------|

e-----------------------------------------------------------------|
B-------------------0-3-0-3^3-0-----------------------------------|
G-7-7-7-7-7-7-7-7-7------------7-7-7-7-7-7-7-7-7~~~~~~~-----------|
D--[gradual bend]-----------------[gradual bend]------------------|
A-----------------------------------------------------------------|
D-----------------------------------------------------------------|

Guitar 2 - Chorus:
e----------------------------------------------------|
B----------------------------------------------------|
G----------------------------------------------------|
D-12-12-12-12-12-12-12-10-10-10-10-10-10-10-10-10-10-|
A-12-12-12-12-12-12-12-10-10-10-10-10-10-10-10-10-10-|
D-12-12-12-12-12-12-12-10-10-10-10-10-10-10-10-10-10-| (x however many)

Guitar 1 - Bridge 1
e-------------------------------|
B-------------------------------|
G-5^5------------5^5------------|
D------4--2----------4--2--//19-|
A-------------3-----------------|
D-------------------------------|

Chorus - both guitars

Guitar 1 - Bridge 2 (1)
e-------------------------|
B-10----12----10----9-----|
G-9-----11----9-----8-----|
D-7-----8-----7-----6-----|
A-7-----8-----7-----6-----|
D-7-X12-8-X12-7-X12-6-X12-| (x however many)

Guitar 2 - Bridge 2 (1)

e-----------------------------------------------------------------|
B-----------------------------------------------------------------|
G-----------------------------------------------------------------|
D-2-2-2-2-2-2-2/8-8-8-8-8-8-8-8-8-2-2-2-2-2-2-2/6-6-6-6-6-6-6-6-6-|
A-2-2-2-2-2-2-2/8-8-8-8-8-8-8-8-8-2-2-2-2-2-2-2/6-6-6-6-6-6-6-6-6-|
D-2-2-2-2-2-2-2/8-8-8-8-8-8-8-8-8-2-2-2-2-2-2-2/6-6-6-6-6-6-6-6-6-|(x however)

Guitar 1 - Bridge 2 (2)

e------------------------------------------------------------|
B------------------------------------------------------------|
G---9---9---9--10--10--10--10--10--9---9---9---8---8---8---8-|
D------------------------------------------------------------|
A-7---7---7--8---8---8---8---8---7---7---7---6---6---6---6---|
D------------------------------------------------------------| (x 2)

e--------------------|
B--------------------|
G-7^^^-9^^--6^^^-4^^-|
D--------------------|
A--------------------|
D--------------------| (x 2)

Guitar 2 - Bridge 2 (2)

e------------------------------------------------------------------------------------|
B------------------------------------------------------------------------------------|
G------------------------------------------------------------------------------------|
D-2-2-2-2-2-2-2/15-15-15-15-15-15-15-15-15-2-2-2-2-2-2-2/13-13-13-13-13-13-13-13-13--|
A-2-2-2-2-2-2-2/15-15-15-15-15-15-15-15-15-2-2-2-2-2-2-2/13-13-13-13-13-13-13-13-13--|
D-2-2-2-2-2-2-2/15-15-15-15-15-15-15-15-15-2-2-2-2-2-2-2/13-13-13-13-13-13-13-13-13--| (x however)

Guitar 1 - Chorus 3

e-------------------------------------------------------------------------------------|
B-------------------------------------------------------------------------------------|
G-------------------------------------------------------------------------------------|
D-2-2-2-2-2-2-2----------------------------2-2-2-2-2-2-2-2----------------------------|
A-2-2-2-2-2-2-2----------------------------2-2-2-2-2-2-2-2----------------------------|
D-2-2-2-2-2-2-2/15-15-15-15-15-15-15-15-15-2-2-2-2-2-2-2-2/12-12-12-12-12-12-12-12-12-|

Guitar 2 - Chorus 3

e---------------------------------------------------------|
B---------------------------------------------------------|
G---------------------------------------------------------|
D-2-2-2-2-2-2-2-0-0-0-0-0-0-0-2-2-2-2-2-2-2-0-0-0-0-0-0-0-|
A-2-2-2-2-2-2-2-0-0-0-0-0-0-0-2-2-2-2-2-2-2-0-0-0-0-0-0-0-|
D-2-2-2-2-2-2-2-0-0-0-0-0-0-0-2-2-2-2-2-2-2-0-0-0-0-0-0-0-|

Back to Intro (but both guitars)
Tap to rate this tab
 
# A B C D E F G H I J K L M N O P Q R S T U V W X Y Z