Song name
# A B C D E F G H I J K L M N O P Q R S T U V W X Y Z

Pulled Apart By Horses - Back To The Fuck Yeah tab

Tuning: Drop D

I'm very sure, that the intro is 100% correct, but the whole song is about 90% correct.



Intro x4
e|-------------------------------------------------------------------------------|
B|-------------------------------------------------------------------------------|
G|-------------------------------------------------------------------------------|
D|-------------------------------------------------------------------------------|
A|------------------------------------------------------------------15--14-12----|
D|-12--12--12-0-12-0---12--12--12-0-12-0--12--12--12-0-12-0---12--12--12------15-|

Do a 3string slide, and then
Chorus x3                                      And on the 4th time
e|-------------------------------------------|------------------------------------------|
B|-------------------------------------------|------------------------------------------|
G|-555------------777------------------------|------------------------------------------|
D|-555--333--777--777------------------------|-555--333--7777777777777777---------------|
A|-333--333--777--555------------------------|-333--333--7777777777777777---------------|
D|------333--777-----------------------------|------333--7777777777777777---------------|

Again the Intro 4 times, and on the third time there is a single note D|--12--| strummed
a few times on the end part of the riff.

Again do the slide.

Again the Chorus, only this time the first part is 7 times and the other part is played 
on the 8th time.

Now wait for the Drums, Bass and Vocals to do their part, and then slide in to

Guitar 1
e|--------------------------------------------------------------------|
B|--------------------------------------------------------------------|
G|--------------------------------------------------------------------|
D|---12--12--12--12--12--12--12--12--15--15--15--15--15--15--15-------|
A|--------------------------------------------------------------------|
D|-12--12--12--12--12--12--12--12--15--15--15--15--15--15--15--15-----|

e|---------------------------------------------------------------|
B|---------------------------------------------------------------|
G|---------------------------------------------------------------|
D|--8--8--8--8--8--8--8--8---10--10--10--10--3--3--2--2----------|
A|---------------------------------------------------------------|
D|-8--8--8--8--8--8--8--8--10--10--10--10--3--3--2--2------------|

Guitar 2 (I'm sure about the notes, but not sure about the pattern)
                            x7
e|----------------------------|-------------------------------|
B|----------------------------|-------------------------------|
G|--18-18-19-19-18-18-19-19---|-----18-18-19-19-19b-----------| (Bend this note as high
as you can while strumming it in rhythm)
D|----------------------------|-------------------------------|
A|----------------------------|-------------------------------|
D|----------------------------|-------------------------------|

After this, both guitars play Guitar 1 together.

And then is the Outro, which of course is the same Intro. That's all.
Tap to rate this tab
# A B C D E F G H I J K L M N O P Q R S T U V W X Y Z