Song name
# A B C D E F G H I J K L M N O P Q R S T U V W X Y Z

Pulled Apart By Horses - Some Mothers tab

-------------------------------------------------------------------------------
                             Some Mothers  Pulled Apart by Horses
-------------------------------------------------------------------------------

Tuning: Drop D

Verse

e|----------------------------------------------------------------------------|
B|----------------------------------------------------------------------------|
G |------------------6--------------------------------------------------------| X4
D|-7----5----10-----7-x5------------------------------------------------------|
A|-7-x8-5-x4-10-x4------------------------------------------------------------|
E |-7----5----10--------------------------------------------------------------|

Pre Chorus

e|----------------------------------------------------------------------------|
B|----------------------------------------------------------------------------|
G|----------------------------------------------------------------------------| X4
D|-7----5----10----3----------------------------------------------------------|
A|-7-x4-5-x4-10-x4-3-x4-------------------------------------------------------|
E|-7 ----5----10----3---------------------------------------------------------|

Chorus

e|----------------------------------------------------------------------------|
B|----------------------------------------------------------------------------|
G|-10-------------------------------------------- ----------------------------| X4
D|-10-x8-10-----5-7-10-7--5-7-10-7-10-----------------------------------------|
A|-8-----10-x8--5-7-10-7--5-7-10-7-10-----------------------------------------|
E |-------10-----5-7-10-7--5-7-10-7-10----------------------------------------|

Bridge

e|--------------------------------------------------------------------------------|
B|--------------------------------------------------------------------------------|
G|------------------------------5-------------------------------------------------|
D|-----10-------10h13-10------------x-a-lot-just-thrash-it------------------------|
A|-----10-x16---10h13-10x6---3---------------------------------------------------|
E|-7-7----------------------------------------------------------------------------|

Pre Chorus

Chorus

Outro

e|----------------------------------------------------------------------------|
B|----------------------------------------------------------------------------|
G|----------------------------------------------------------------------------| X4
D|---- ---------5-7-10-7--5-7-10-7-10-----------------------------------------|
A|----- --------5-7-10-7--5-7-10-7-10-----------------------------------------|
E|--------------5-7-10-7--5-7-10-7-10-----------------------------------------|

End
Tap to rate this tab
 
# A B C D E F G H I J K L M N O P Q R S T U V W X Y Z