Song name
# A B C D E F G H I J K L M N O P Q R S T U V W X Y Z

Pulled Apart By Horses - The Crapsons tab

--------------------------------------------------------------------------
                             THE CRAPSONS - PULLED APART BY HORSES
--------------------------------------------------------------------------
Tabbed by: JaaaayDeeee
E-mail: jdgilbert@ntlworld.com

Tuning: Drop D

Intro

e|-------------------------------------|
B|-------------------------------------|
G|-------------------------------------|
D|-12h13-13-12h13-13-12h13-13-12h13-13-|
A|-12h13-13-12h13-13-12h13-13-12h13-13-|
D|-12h13-13-12h13-13-12h13-13-12h13-13-|

Verse
e|---------------------------| x4
B|---------------------------|
G|---------------------------|
D|-------5-5-5-------1p0-----|
A|-----------------------3p0-|
D|-7-7-7-------3-3-3---------|

e|---------------------------|
B|---------------------------|
G|---------------------------|
D|---5-----5------1-----1----|
A|---------------------------|
D|-7---7-7---7\-3---3-3---3/-| x4

e|-----------------------------------|
B|-----------------------------------|
G|-----------------------------------|
D|-0-3-7-0-3-7-0-3-7-----------------|
A|-0-3-7-0-3-7-0-3-7-0h3h5-0h3h5-----|
D|-0-3-7-0-3-7-0-3-7-----------------|x4(4th time replace h-ons w pickslide)

verse 2

e|---------------------------| x4
B|---------------------------|
G|---------------------------|
D|-------5-5-5-------1p0-----|
A|-----------------------3p0-|
D|-7-7-7-------3-3-3---------|

e|---------------------------|
B|---------------------------|
G|---------------------------|
D|---5-----5------1-----1----|
A|---------------------------|
D|-7---7-7---7\-3---3-3---3/-| x4

e|-----------------------------------|
B|-----------------------------------|
G|-----------------------------------|
D|-0-3-7-0-3-7-0-3-7-----------------|
A|-0-3-7-0-3-7-0-3-7-0h3h5-0h3h5-----|
D|-0-3-7-0-3-7-0-3-7-----------------| x4

then 

e|---|
B|---|
G|---|
D|-0-|
A|-0-|
D|-0-|

"OOOOOOOOOOOOHHHHHHHHHHHHHHHHHAAAAAAAAAAAAAAAAAAARRRRRRRRRGHHHHHHHH!!!"
*FEEDBACK AND STUFF*

"1234"

e|---------------------------------|
B|---------------------------------|
G|---------------------------------|
D|-12-0-0-5-6-7-10-12-0-0-12h13-13-|
A|-12-0-0-5-6-7-10-12-0-0-12h13-13-|
D|-12-0-0-5-6-7-10-12-0-0-12h13-13-| x8


e|---------------------------------|
B|---------------------------------|
G|---------------------------------|
D|-12-0-0-5-6-7-10-12-0-0-12h13-13-|
A|-12-0-0-5-6-7-10-12-0-0-12h13-13-|
D|-12-0-0-5-6-7-10-12-0-0-12h13-13-|

add this at the end 

e|-------------------------------------|
B|-------------------------------------|
G|-------------------------------------|
D|-12h13-13-12h13-13-12h13-13-12h13-13-|
A|-12h13-13-12h13-13-12h13-13-12h13-13-|
D|-12h13-13-12h13-13-12h13-13-12h13-13-|

e|-------------------------------------|
B|-------------------------------------|
G|-------------------------------------|
D|-12h13-13-12h13-13-12h13-13-12h13-13-|
A|-12h13-13-12h13-13-12h13-13-12h13-13-|
D|-12h13-13-12h13-13-12h13-13-12h13-13-|

e|--------------|
B|--------------|
G|--------------|
D|-12h13-13-12\-|
A|-12h13-13-12\-|
D|-12h13-13-12\-|


************************************

| /   slide up
| \   slide down
| h   hammer-on
| p   pull-off
| ~   vibrato
| +   harmonic
| x   Mute note
| b   Bend
| pb  Pre-bend
| br  Bend release
| pbr Pre-bend release
| brb Bend release bend

************************************
Tap to rate this tab
# A B C D E F G H I J K L M N O P Q R S T U V W X Y Z