Song name
# A B C D E F G H I J K L M N O P Q R S T U V W X Y Z

Pulley - Where Are You Now tab

WHERE ARE YOU NOW - Pulley


By: jeff    pulley@punk.zzn.com
http://www.punkbands.com/pulley

Riff: play alot
|----------------------------------------------------------------------------------------
|----------------------------------------------------------------------------------------
|-14-14-14-14-14-14-14-14-14-14-14-14-14-14-14-14-14-14-14-14-14-14-14-14-14-14-14-14-14-
|-14-14-14-14-14-14-14-14-12-12-12-12-12-12-12-11-11-11-11-11-11-11-12-12-12-12-12-12-12-
|----------------------------------------------------------------------------------------
|----------------------------------------------------------------------------------------
Guitar two plays high E5

Verses:
|-------------------------      -----------------------------------------
|-------------------------  x3  -----------------------------------------
|-9-9-9-------7-7-7------- then ---------------------7-7-7-7-7-----------
|-9-9-9-7-7-7-7-7-7-5-5-5- this -7-7-7-7-7-5-5-5-5-5-7-7-7-7-7-5-5-5-5-5-
|-7-7-7-7-7-7-5-5-5-5-5-5-      -7-7-7-7-7-5-5-5-5-5-5-5-5-5-5-5-5-5-5-5-
|-------5-5-5-------3-3-3-      -5-5-5-5-5-3-3-3-3-3-----------3-3-3-3-3-

Bit: palm muted
|--------------
|--------------
|-------------- x 4
|-7-7-7--------
|------5-5-5-7-
|--------------

Hardcore sounding bit:
|-----------------------------
|-----------------------------
|-5-5-5---------5-5-5--------- x 4
|-5-5-5-9-9-9-9-5-5-5-2-2-2-2-
|-3-3-3-9-9-9-9-3-3-3-2-2-2-2-
|-------7-7-7-7-------0-0-0-0-

Play verse then finish on
|----
|----
|-14- or high E5
|-14-
|----
|----

commentsorcorrestionsmailmepulley@punk.zzn.com
Tap to rate this tab
 
# A B C D E F G H I J K L M N O P Q R S T U V W X Y Z