Pulley - Ghost Inside My Skin tab

PULLEY - "Ghost Inside My Skin" (from the ep: The Insensitive Material)

Tab by Alberto mollysvictim@yahoo.it

Notation:
s = slide
h = hammer on
p = pull 
~ = let ring
^ = lift up the string

INTRO (chords: F E D F C Dm )
e|---------------------|
B|---------------------|
G|---------10 -9-7s6h7-|
D|-3-2-0~~-------------|
A|---------------------|
E|---------------------|


VERSE:
e|-1------10-12-13-12----------1------10-12-13-12-----|
B|-3---10-------------6---10~~-3---10-------------6---|
G|-2------------------7--------2------------------7---|
D|--------------------8---------------------------8---|
A|--------------------8---------------------------8---|
E|----------------------------------------------------|

PRECHORUS
e|-------------------------------------------------|
B|-------------------------------------------------|
G|-7-7-7-7-7-7-3-3-3-5-5-5-7-7-7-7-7-7-------------|
D|-7-7-7-7-7-7-3-3-3-5-5-5-7-7-7-7-7-7-3-3-3-5-5-5-|
A|-5-5-5-5-5-5-1-1-1-3-3-3-5-5-5-5-5-5-3-3-3-5-5-5-|
E|-------------------------------------1-1-1-3-3-3-|

e|------------------------------------|
B|------------------------------------|
G|-7-7-7-7-7-7-3-3-3-5-5-5-5-5-5-2~~~-|
D|-7-7-7-7-7-7-3-3-3-5-5-5-3-3-3-2~~~-|
A|-5-5-5-5-5-5-1-1-1-3-3-3-------0~~~-|
E|------------------------------------|


CHORUS
e|------------------------------------------------------------------|
B|------------------------------------------------------------------|
G|-3-3-3-3--------------------------3-3-3-3-4-4-4-4-5-5-5-5-5-5-5-5-|
D|-3-3-3-3-3-3-3-3-7-7-7-7----------3-3-3-3-4-4-4-4-5-5-5-5-5-5-5-5-|
A|-1-1-1-1-3-3-3-3-7-7-7-7-5-5-5-5--1-1-1-1-2-2-2-2-3-3-3-3-3-3-3-3-|
E|---------1-1-1-1-5-5-5-5-5-5-5-5----------------------------------|

e|----------------------------------------------------------------------|
B|----------------------------------------------------------------------|
G|-3-3-3-3--------------------------3-3-3-3-4-4-4-4-5-5-5-5-5-5-5-5-6~~~|
D|-3-3-3-3-3-3-3-3-7-7-7-7----------3-3-3-3-4-4-4-4-5-5-5-5-5-5-5-5-6~~~|
A|-1-1-1-1-3-3-3-3-7-7-7-7-5-5-5-5--1-1-1-1-2-2-2-2-3-3-3-3-3-3-3-3-4~~~|
E|---------1-1-1-1-5-5-5-5-5-5-5-5--------------------------------------|

BRIDGE RIFF (chords: F F D A#)
e|---------------------------|
B|---------------------------|
G|-------10-9-7--------------|  repeat x4
D|-10-10--------10-8-7h8-10~-|
A|---------------------------|
E|---------------------------|


BRIDGE: (chords F   F   D   A#  F   F   D   C)
e|----------------------------------------------------------------|
B|-------------------------------------------11-10-8--------------|
G|-------10-9-7--------------------10-9-7-----------10-10-10~~~~~~|  
D|-10-10--------10-8-7h8-10~-10-10--------10----------------------|
A|----------------------------------------------------------------|
E|----------------------------------------------------------------|


OUTRO:
e|-------------------|
B|-------------------|
G|-7-----3-----------|
D|-7-----3-----3-----|
A|-5-----1-----3-----|
E|-------------1-----|
Tap to rate this tab
 
# A B C D E F G H I J K L M N O P Q R S T U V W X Y Z