Pulley - Pie tab

Pulley - Pie

Credit goes to www.punk-tabs.de because they're the only damn
website that has these tabs, so I figured I'd share them here
for criticism as well.

intro:   verses:
|-------|-------------------------------------|
|-5-3---|-------------------------------------|
|-6-4-7-|-----7-7-7-7-6-6-6-----7-6-6-6-6-6-6-|
|-7-5-7-|-7-5-7-7-7-7-6-6-6-7-5-7-6-6-6-6-6-6-|
|-7-5-5-|-7-5-5-5-5-5-4-4-4-7-5-5-4-4-4-4-4-4-|
|-5-3---|-5-3---------------5-3---------------|

|-------------------------------------|
|-------------------------------------|
|-----------------7-7-7-7-7-7-7-6-6-6-|
|-7-7-7-7-5-5-5-5-7-7-7-7-7-7-7-6-6-6-|
|-7-7-7-7-5-5-5-5-5-5-5-5-5-5-5-4-4-4-|
|-5-5-5-5-3-3-3-3---------------------|

|-------------------------------------|
|-------------------------------------|
|-----------------7-7-7-7-6-6-6-6-6-6-|
|-7-7-7-7-5-5-5-5-7-7-7-7-6-6-6-6-6-6-|
|-7-7-7-7-5-5-5-5-5-5-5-5-4-4-4-4-4-4-|
|-5-5-5-5-3-3-3-3---------------------|

chorus: x 4 on 3+4th play without mutes
|---------------------------|
|---------------------------|
|---7-----------------------|
|-5-7-7-x-x-7-x-x-x-7-x-x-7-|
|-5-5-7-x-x-7-x-x-x-7-x-x-7-|
|-3---5-x-x-5-x-x-x-5-x-x-5-|

bridge: x 2
|---------------------------------------------------|
|---------------------------------------------------|
|-6-7---------------------6-7---------7-7-6-6-6-6-6-|
|-6-7-7-7-7-7-4-4-5-5-5-5-6-7-7-7-7-7-5-5-4-4-4-4-4-|
|-4-5-7-7-7-7-4-4-5-5-5-5-4-5-7-7-7-7---------------|
|-----5-5-5-5-2-2-3-3-3-3-----5-5-5-5---------------|

outro:
|-------------------------------------------------|
|-------------------------------------------------|
|-7-7-7-7-7-----------7-7-7-7-7---------7-7-7-7-7-|
|-5-5-7-7-7-7-7-5-5-5-5-5-7-7-7-7-7-5-5-7-7-7-7-7-|
|-----5-5-5-7-7-5-5-5-----5-5-5-7-7-5-5-5-5-5-5-5-|
|-----------5-5-3-3-3-----------5-5-3-3-----------|
Tap to rate this tab
 
# A B C D E F G H I J K L M N O P Q R S T U V W X Y Z