Song name
# A B C D E F G H I J K L M N O P Q R S T U V W X Y Z

Pulley - Cashed In tab

Cashed In by Pulley
From Esteem Driven Engine
Tabbed by chargerbandit
Tabbed 26.5.2012

First song on the first album and it kicks ass.

(/) Slide Up  (\) Slide Down  (h) Hammer On  (p) Pull Off  (b) Bend (r) Release (v)
Vibrato (l) Let ring

main riff thing
E|-----------------------------------|
B|-334--343--6-4-3-------------------|
G|-333--333--3-3-3-------------------|
D|-----------------------------------|
A|-----------------------------------|
E|-----------------------------------|

second guitar plays this in the back of main riff
E|-----------------------------------|
B|-----------------------------------|
G|-----------------------------------|
D|-3333------------------------------|
A|-1111------------------------------|
E|-----------------------------------|

riff1
E|-----------------------------------|
B|-----------------------------------|
G|-----------------------------------|
D|------8888-------------------------|
A|-3333-6666-------------------------|
E|-1111------------------------------|

bridge riff - "it was at my expense,now we have to..."
E|---------------------------------------------|
B|---------------------------------------------|
G|-10101010-8888-15151515-8888-10101010-8888---|
D|---------------------------------------------|
A|--8-8-8-8-6666-13131313-6666--8-8-8-8-6666---|
E|---------------------------------------------|

riff2 - played the first time through
E|-----------------------------------|
B|-----------------------------------|
G|-8888-7777-5555-7777-8888-7777-----|
D|-----------------------------------|
A|-6666-5555-3333-5555-6666-5555-----|
E|-----------------------------------|

riff3 - played the second time through, played twice
E|------------------------------------------|
B|------------------------------------------|
G|-8888-7777-5555-7777-5555-3333-5555-3333--|
D|------------------------------------------|
A|-6666-5555-3333-5555-3333-1111-3333-1111--|
E|------------------------------------------|

after second time,end on
E|-----------------------------------|
B|-----------------------------------|
G|-----------------------------------|
D|-3333-3333-------------------------|
A|-1111-1111-------------------------|
E|-----------------------------------|

chorus - "stuck on the bottom again..."
E|-----------------------------------|
B|-----------------------------------|
G|-----------------------------------|
D|-----------------------------------|
A|-3333-6666-------------------------|
E|-1111-4444-------------------------|

ending
E|-----------------------------------|
B|-----------33-4-3-4-3-64-3l--------|
G|-----------33-3-3-3-3-33-3l--------|
D|------8888-------------------------|
A|-3333-6666-------------------------|
E|-1111------------------------------|

If you find and mistakes or want me to tab a punkrock song,
email me at: chargerbandit.69@gmail.com

Enjoy this great song!
Tap to rate this tab
# A B C D E F G H I J K L M N O P Q R S T U V W X Y Z