Song name
# A B C D E F G H I J K L M N O P Q R S T U V W X Y Z

Pulley - No Defence tab

NO DEFENCE - Pulley


By: jeff   pulley@punk.zzn.com 

Riff 
|------------------------------------------ 
|------------------------------------------
|-12-----12-12----12-12-----12-10-10-10-10- 
|----10--------10--------10----------------
|------------------------------------------
|------------------------------------------

Verses: 
|--------------------------------------------------------------------
|--------------------------------------------------------------------
|-5-5-5-5-5-5-5-5----------------------------------------------------
|-5-5-5-5-5-5-5-5--7-7-7-7-7-7-7-7--3-3-3-3-3-3-3-3--5-5-5-5-5-5-5-5- 
|-3-3-3-3-3-3-3-3--7-7-7-7-7-7-7-7--3-3-3-3-3-3-3-3--5-5-5-5-5-5-5-5- 
|------------------5-5-5-5-5-5-5-5--1-1-1-1-1-1-1-1--3-3-3-3-3-3-3-3- 

Chorus: 
|---------------------------------------------------------------------------------------------- 
|----------------------------------------------------------------------------------------------
|-5-x-x-5-9-x-x-9-5-x-x-5----------5-x-x-5-----------------------------5-x-x-5-4-x-x-4-5-x-x-5-
|-5-x-x-5-9-x-x-9-5-x-x-5-5-x-x-5-5-x-x-5-5-x-x-5-3-x-x-3-3-x-x-x-x-x--5-x-x-5-4-x-x-4-5-x-x-5-
|-3-x-x-3-7-x-x-7-3-x-x-3-5-x-x-5-3-x-x-5-5-x-x-5-3-x-x-3-3-x-x-x-x-x--3-x-x-3-2-x-x-2-3-x-x-3-
|-------------------------3-x-x-3---------3-x-x-3-1-x-x-1-1-x-x-x-x-x--------------------------

|----------------------------- 
|-----------------------------
|-5-x-x-5-5-x-x-5------------- 
|-5-x-x-5-5-x-x-5-5-x-x-x-x-x-
|-3-x-x-3-5-x-x-5-5-x-x-x-x-x- 
|---------3-x-x-3-3-x-x-x-x-x- 

Pre outro: 
|--------------------------------------------------
|--------------------------------------------------
|-5--7--9--10--9--7--------------------------------
|-5--7--9--10--9--7---3-x-x-3-3-3-3--3-x-x-3-3-3-3- 
|-3--5--7--8---7--5---3-x-x-3-3-3-3--3-x-x-3-3-3-3- 
|---------------------1-x-x-1-1-1-1--1-x-x-1-1-1-1- 

Outro: 
|-----------------------------------------------------------------
|----------------------------------------------------------------- 
|-5-5-5-5-5-5--4-4-4-4-4-4----------------------------------------
|-5-5-5-5-5-5--4-4-4-4-4-4--7-7-7-7-7-7--5-5-5-5-5-5--3-3-3-3-3-3- 
|-3-3-3-3-3-3--2-2-2-2-2-2--7-7-7-7-7-7--5-5-5-5-5-5--3-3-3-3-3-3- 
|---------------------------5-5-5-5-5-5--3-3-3-3-3-3--1-1-1-1-1-1- 

i finally figured out the solo it's mostly right so if you think it's totaly 
wrong play the riff in the background 

Solo: 
|--------------------------------------------------13---------------------------------15-13-13-
|--------------------------13-12-12-13-12-12-13-12---------------13-12-12-15-13-13-15----------
|-12-12-12-10-9-9-10-12-12----------------------------9-12-12-12-------------------------------
|----------------------------------------------------------------------------------------------
|----------------------------------------------------------------------------------------------
|----------------------------------------------------------------------------------------------

|--------------------13-13-13-13-13-13-13-13-12-12-12-12-12-12-12-------
|-15-15-15-13-13-13-----------------------------------------------15-13- 
|-14-14-14-12-12-12-----------------------------------------------------
|-----------------------------------------------------------------------
|-----------------------------------------------------------------------
|-----------------------------------------------------------------------
comments or corrections e-mail me
Tap to rate this tab
 
# A B C D E F G H I J K L M N O P Q R S T U V W X Y Z