Song name
# A B C D E F G H I J K L M N O P Q R S T U V W X Y Z

Pulley - Simply Fy tab

SIMPLY FY - Pulley


By me jeff@punkbands.com
www.punkbands.com/pulley

verse
|---------------------------------------
|---------------------------------------
|-7-x-x-7-5-5-5-------------------------
|-7-x-x-7-5-5-5-2-2-2-3-3-3-3-3-5-5-5-3-
|-5-x-x-5-3-3-3-2-2-2-3-3-3-3-3-5-5-5-3-
|---------------0-0-0-1-1-1-1-1-3-3-3-1-

chorus
|---------------------------------------------
|---------------------------------------------
|---------------------------------------------
|-10-10-10-10---------------------------------
|--8--8--8--8-10-10-10-10-12-12-12-12-8-8-8-8-
|--------------8--8--8--8-10-10-10-10-6-6-6-6-

|-------------------------------------------------
|-------------------------------------------------
|-------------------------------------------------
|-10-10-10-10-------------------------10-10-10-10-
|--8--8--8--8-12-12-12-12-10-10-10-10--8--8--8--8-
|-------------10-10-10-10--8--8--8--8-------------

riff kinda thing
|-----------
|-----------
|----------- play a
|-7>8-8-8>7- few
|-8---8-8--- times
|-----------

for lots more pulley tabs go to www.punkbands.com/pulley
Tap to rate this tab
# A B C D E F G H I J K L M N O P Q R S T U V W X Y Z