Song name
# A B C D E F G H I J K L M N O P Q R S T U V W X Y Z

Pulley - Insects Destroy tab

Help us improve GuitareTab! Take a short survey!
Pulley - Insects Destroy
Tabbed Out By: Jason Mann
(theevolutionofmann@hotmail.com)
Standard Tuning
e
B
G
D
A
E

chords
   C5          D#5   A#5    G5   F5      G#5
e|-------------------------------------------|
B|-------------------------------------------|
G|-5--------8-------------3------------------|
D|-5-OR-10--8-OR-13--8----3--5--3----15--6---|
A|-3----10--6----13--8-OR-1--5--3-OR-15--6---|
E|-------8-------11--6-------3--1----13--4---|

Intro (Clean)
       C5        D#5        A#5     G5
e|------------------------------------------|
B|-----4----------7----------2--------------|
G|-------5----------8----------3------------|
D|--------5----------8----------3------5----| X2 on 2nd time distorted guitar 2 comes in with:
A|-3-3-------6-6---------1-1-------------5--|
E|---------------------------------3-3------|

Pm to release
C5

Guitar 1 plays this:
C5 D#5 A#5 G5

and guitar 2 plays this over the top of guitar 1:

Pre Verse 1 Riff
e|-------------------------------------------|----------------|
B|-------------------------------------------|----------------|
G|-------------------------------------------|----------------|
D|----------------------------------8--------|----------------|
A|----10-10-8--10-10-8--10-10-8--10---10-8---|-6-6-6-6--------|
E|-------------------------------------------|---------6-6-6-6|
                repeat 3 times        then >>|
Pm to release
C5

Verse 1 (Palm muted)
I'm looking for a friend today
C5

Another victim just like me
D#5            A#5

A lunatic a loser a freak
C5

Another casualty from a fucked up society
D#5                     A#5

I gave my all to the system
C5

Half my life still in question
D#5                     A#5

All about the money and power
C5

All the greed they've devoured
D#5           G5 (pm to release)


Chorus
You never gave any credibility
C5        D#5      A#5  G5

for a vision given to the enemy
C5    D#5          A#5    G5

And on the faces of humanity
C5        D#5      A#5   G5

A stone's eye throw for a man
D#5                       G5

On a pedestal

Between Verse Riff
e|------------------------------------------------------------------------|--------------------------|
B|------------------------------------------------------------------------|--------------------------|
G|------------------------------------------------------------------------|--------------------------|
D|----10--10--12-13-13--13-13-13-15-13-12-10--10--10--12-13-13--8-8-13-10-|----------------8-8-8-8-8-|
A|------------------------------------------------------------------------|-10-10-10-10-10-----------|
E|------------------------------------------------------------------------|--------------------------|
                           repeat twice                           then>>>>|

Pm to release
C5

Verse 2 (Palm muted)
You sold your soul to the man
C5

Another deal a deal gone bad
D#5            A#5

Another seed that never gets planted
C5

Corporate insects destroy our planet
D#5               A#5

Never going to let another day die
C5

My friend you and I
D#5       A#5

Feel the heat from the fire outside
C5

Burning hot still alive
D#5         G5 >pm to release


Chorus
You never gave any credibility
C5        D#5      A#5  G5

for a vision given to the enemy
C5    D#5          A#5    G5

And on the faces of humanity
C5        D#5      A#5   G5

A stone's eye throw for a man
D#5                       G5

On a pedestal

             C5C5           C5C5D#5A#5  C5C5          C5C5D#5A#5
	e|--------------------------------------------------------|
	B|--------------------------------------------------------|
	G|--------------------------------------------------------|
	D|--------------------------------------------------------|
	A|--------10-12-10-------------------10-12-10-------------|
	E|--------------------------------------------------------|

I keep it bottled inside me
D#5               F5

THEN
             C5C5           C5C5D#5A#5  C5C5          C5C5D#5A#5
	e|--------------------------------------------------------|
	B|--------------------------------------------------------|
	G|--------------------------------------------------------|
	D|--------------------------------------------------------|
	A|--------10-12-10-------------------10-12-10-------------|
	E|--------------------------------------------------------|

You keep it bottled inside you
D#5                 G5

(Clean)
       C5        D#5        A#5     G5
e|------------------------------------------|
B|-----4----------7----------2--------------|
G|-------5----------8----------3------------|
D|--------5----------8----------3------5----| Play this twice then play twice while 
this:
A|-3-3-------6-6---------1-1-------------5--|
E|---------------------------------3-3------|

See the sun drop colours of red
Broken bones for a mouth well fed
Bring back a real train of thought
Another tool for the melting pot
                     G5 (pm to realese)

2 Strokes per chord
C5 F5 C5 G5 A#5 G#5  C5 F5 C5 G5 D#5 A#5

Chorus
You never gave any credibility
C5        D#5      A#5  G5

for a vision given to the enemy
C5    D#5          A#5    G5

And on the faces of humanity
C5        D#5      A#5   G5

You never gave any credibility
C5        D#5      A#5  G5

for a vision given to the enemy
C5    D#5          A#5    G5

And on the faces of humanity
C5        D#5      A#5   G5

A stone's eye throw for a man
D#5                       G5

If you have any comments or i've missed something please email me on: theevolutionofmann@hotmail.com
thanx Jason Mann
Related for Insects Destroy tab