Song name
# A B C D E F G H I J K L M N O P Q R S T U V W X Y Z

Pulp - Sunrise tab

-------------------------------------------------------------------------------
			     Sunrise - Pulp
-------------------------------------------------------------------------------
Tabbed by: Brotherhood of the squirrel
Email: brotherhoodofthesquirrel@hotmail.co.uk

Tuning: Standard

     Verses 1&2 
e|---5----5-----5-----7-7p5-----9-----9----9------10-10\----9-----9-----9----|
B|-5----5-----5---5-5---------5-----5----5---5/7----------5-----5-----5------|
G|---------------------------------------------------------------------------|
D|---------------------------------------------------------------------------|
A|---------------------------------------------------------------------------|
E|---------------------------------------------------------------------------|

e|-----7-7p5----5-----5--5-4-5-----5-5-5-5\3---3----3-3-3-3/5---5------------|
B|-5-5--------5-----5--------------5-5-5-5\3---3----3-3-3-3/5---5------------|
G|---------------------------------6-6-6-6\4---4----4-4-4-4/6---6------------|
D|---------------------------------7-7-7-7\5---5----5-5-5-5/7---7------------|
A|---------------------------------7-7-7-7\5---5----5-5-5-5/7---7------------|
E|---------------------------------5-5-5-5\3---3----3-3-3-3/5---5------------|

e|-5-5-5-5\3---3----3-3-3-3/5---5--------------------------------------------|
B|-5-5-5-5\3---3----3-3-3-3/5---5--------------------------------------------|
G|-6-6-6-6\4---4----4-4-4-4/6---6----PLAY TWICE-----------------------------|
D|-7-7-7-7\5---5----5-5-5-5/7---7--------------------------------------------|
A|-7-7-7-7\5---5----5-5-5-5/7---7--------------------------------------------|
E|-5-5-5-5\3---3----3-3-3-3/5---5--------------------------------------------|

     The bit that goes "when you've been awake 
     all night long" chords are: D  A  G  D  A
   
  Bridge: Gtr1, strum these three chords...in this order...with the slides 
          check the recording for rhythm
e|---------------------------------------------------------------------------|
B|-10-\-6-/-8----------------------------------------------------------------|
G|-9--\-5-/-7----------------------------------------------------------------|
D|-11-\-7-/-9----------------------------------------------------------------|
A|-0--\-0-/-0----------------------------------------------------------------|
E|---------------------------------------------------------------------------|
     Gtr2
e|-------------------------------------------------------------------------------|
B|--10-----10------10------10------10------\-6-----6-----6---\-3-----3-----3---/-|
G|-----9------9-------9-------9-------9----\---5-----5-----5-\---2-----2-----2-/-|
D|-------11-----11------11------11------11-\-----7-----7-----\-----4-----4-----/-|
A|----------------------------------------------------------------------Repeat---|
E|-------------------------------------------------------------------------------|
     Solo
e|-12/17----12--17-----12--17----12--17----12--17-17-17\15--15-15-15\12---------------|
B|----------------------------------------------------------------------17-17-17\15---|
G|------------------------------------------------------------------------------------|
D|------------------------------------------------------------------------------------|
A|------------------------------------------------------------------------------------|
E|------------------------------------------------------------------------------------|

e|---------------------------------------------------------------------------|
B|-15-15\13--13--------------------------------------------------------------|
G|-----------------Repeat-solo-and-ad-lib------------------------------------|
D|---------------------------------------------------------------------------|
A|---------------------------------------------------------------------------|
E|---------------------------------------------------------------------------|

| /  slide up
| \  slide down
| h  hammer-on
| p  pull-off
| ~  vibrato
| +  harmonic
| x  Mute note
===============================================================================
Tap to rate this tab
# A B C D E F G H I J K L M N O P Q R S T U V W X Y Z