Pulp - Yesterday tab

Pulp
Yesterday
(Jarvis Cocker, Nick Banks, Candida Doyle, Steve Mackey, Mark Webber)

(Chords)
(capo 4th)
G     Am7    C     Am     F     Bb     D     Em
3     0      3     0      1     1      2     0
0     1      5     1      1     3      3     0
0     0      5     2      2     3      2     0
0     2      5     2      3     3      0     2
2     0      3     0      3     1      #     2
3     #      #     #      1     #      #     0


Intro
    (riff 1))
--- --------0-------|
--- -0-3--0---3-0---|
-2- --------------2-|
--- ----------------|
--- ----------------|
--- ----------------|

(no capo)
(w/riff 1)
 G  Em      G   Em      G  Em     G   Em F#m
-------------------------------------------|
-------------------------------------------|
-------------------------------------------|
-------------------------------------------|
-2-----6-4--2-2-4--6-4--2-----6-4--2-2-----|
----4----------------------4-----------4-2-|

(riff 2)
E-12--11--12-11-9-7-|
B-------------------|

(riff 3)
E-9---11--12-11-9-7-|
B-------------------|

(capo 4th)
Verse
 G            Am7         G          Am7         G         Am7
----------------|
-----0----------|
-------0-2--0-2-|
---0------------|
----------------|
-3--------------|

Verse
      G                      Am7       G
Yesterday, you were the daddy
    Am7         G         Am7      G      Am7
Yeah, you were steaming

C(w/riff 2)
You had it all
Then you realised
      F       G         Am7      G      Am7
You were only dreaming

Am(w/riff 3)                                              C
Now you're washing up your last night's coffee cups
              G         Am7      G       Am7
Yeah, you get cleaning
     Em              F
'Cos yesterday's not today
             G      Am7      G       Am7
So it has no meaning

Yesterday you were the dogs'
But then you blew it
You set your sights on the best of all, you got it
But you never knew it

Now you don't feel wronged or noble at all
Just very stupid

Yeah, yesterday's not today
Yesterday is over
Oh yeah, yesterday's so far away
Cannot hurt you

(rpt riff 1)
--- --------0-------|
--- -0-3--0---3-0---|
-2- --------------2-|
--- ----------------|
--- ----------------|
--- ----------------|

(no capo)
Bass (2x)
---------------------------|
------6-4--6---------------|
-2--2---------2--2---------|
--------------------4-2--4-|

(capo 4th)
(rpt riff 1)
 G            Em         G         Em          G        Em


Outro
(Riff 1)
 G            Am7        G         Am7         G        Am7
----------------|
-----0----------|
-------0-2--0-2-|
---0------------|
----------------|
-3--------------|

      Bb
Yeah, yesterday's gone
   D                    G
So yesterday can't hurt you

Yeah, yesterday's gone
So yesterday can't hurt you

  G         Am7
(Nothing to live up to
           G         Am7
You've got no-one to pay)
      Bb
Yeah, yesterday's gone
   D
So yesterday can't hurt you
       G         Am7
(Look out of your window
       G         C
It's a beautiful day)
      Bb
Yeah, yesterday's gone
      D
So yesterday can't hurt you

--------------------------0--------3-|
-----0---------------0------3--0---0-|
-------0-2--0-2--------0---------2-0-|
---0---------------0---------------0-|
-----------------------------------2-|
-3---------------3-----------------3-|
Tap to rate this tab
 
# A B C D E F G H I J K L M N O P Q R S T U V W X Y Z