Pulp - Shes A Lady tab

Pulp
She's A Lady
(Jarvis Cocker, Russell Senior, Candida Doyle, Steve Mackey, Nick Banks)

Intro (keyboard) :

e -------------------------------------------------------------------------|
B -------------------------------------------------------------------------|
G -5-6-8-8-8-8-8-8-8-8-8-8-8-8-8-8-8-8-6-5---------------------------------|
D -----------------------------------------8-8-8-8-8-8-8-8-8-8-8-8-8-8-8-8-|
A -------------------------------------------------------------------------|
E -------------------------------------------------------------------------|

Guitar pattern (let ring !)
       Ebm			    Bbsus4 Bb
e -----6-----------------------------6-----6-------------------------------|
B -----7----------------7-------7----6-----6-------------------------------|
G -----8------------------8---8------8-----7-------------------------------|
D -----8--------------------8--------8-----8-------------------------------|
A -----6-----------------------------8-----8-------------------------------|
E -----------------------------------6-----6-------------------------------|

Ma ma ma ma
Mamama mamama mamama ma ma ma ma ma
Ma ma ma ma ma ma ma....

Ebm
Are you trying to put me on?
I turned around and it was gone
Bb
Did I leave it in your car?
On a table, in a bar?
   Ebm
Or in your bed, between the sheets?
The places where we used to meet?
    Bb
Wherever love has gone, I need to know

             Ebm
'Cos she's a woman
		       Bsus4
Oh yeah baby she's a woman
		Bb		    Ebm
Ma ma ma ma ma ma ma ma ma, she's a lady
				Bsus4
Oh, and I just love the way she moves
	    Bb
The way she moves...
...watch her.
Yeah

Interlude :
     B	    Bb	   G#	  F#	 F	E     Ebm
e ---7------6------4------2------1------0------6---|
B ---7------6------4------2------1------0------7---|
G ---8------7------5------3------2------1------8---|
D ---9------8------6------4------3------2------8---|
A ---9------8------6------4------3------2------6---|
E ---7------6------4------2------1------0----------|


Ebm
When you left
	 G#		            C#
I didn't know how I was going to forget you
       F#			     B
I was hanging by a thread and then I met her
	G#m			     Bbm
Selling pictures of herself to German businessmen
	     Bb
Well, that's all she wants to do

	     Ebm
Come on, come on!
		G#
I don't want to try too hard
		C#
I don't want to wait too long
		F#
I don't want to live alone
	      B
With all this crap that pulls me down
G#m 			     Bbm
Oh, tell me now how would it feel
	    Bb
If I could touch you once again?

	       Ebm
Where have you gone?
	       G#
Where have you gone?
	     C#
The moon has gone down
       F#
On the sun
	B
Oh yeah I know that you're coming home
G#m
You couldn't leave me on my own
Bbm
Everybody, can't you see?
      Bb
She's coming back to me!

Whilst you were gone
I got along
I didn't die
I carried on
Oh ma ma
You got to hold me tight
So I could make it through the night
Stayed in bed all day
To feel OK
I felt OK
Oh I felt

Ebm
sick and tired
yes I did
she lived at her father's place
Bb
played his records
though they jumped
wore her body
back to front
Ebm
I tried hard to make it work
Kissed her where she said it hurt
    Bb
But I was always underneath

	     Ebm
'Cos she's a woman
		      Bbsus4
Oh yeah baby, she's a woman
	    Bb			    Ebm
Ma ma ma ma ma ma ma ma ma, she's a lady
			    Bbsus4
And I just love the way she moves
	    Bb
The way she moves, oh...

Ebm
I don't know why you pretend
That it causes you pain
When you know very well
You're gonna do it again
You're gonna do it again
You're gonna do it again
and again
and again and again and again and again
and keep it going
going all night long!

Ma ma ma ma...

Shake it, shake it, shake your body, yeah

Oh, I know it's going to happen.
It might not be today.
It might not be tomorrow
Or even the day after
But sometime soon
You're gonna see
You're gonna, you're gonna, you're gonna...
...come back to me!

Whilst you were gone
	G#
I got along
	 C#
I didn't die
	  F#
I carried on
	    B
Oh ma ma ma Went drinking every night
G#m
Just so I could feel alright
Bbm
Stayed in bed all day
	Bb
To feel OK
I felt OK

Where have you gone?
Where have you gone?
The moon has gone down
Gone down on the sun, oh
I know that you're coming home
Wouldn't leave me on my own
Everybody, can't you see?
She's coming back to me!
Where have you gone?
Where have you gone?
Oh no, I didn't die
Oh no, I carried on, yeah
Uh uh uh
Oh, working every night
Just so that I felt alright
Stayed in bed all day, oh
OK

Whilst you were gone
I got along
I didn't die
Carried on
Yeah, I went with other women
What else can I say?
I guess I kind of missed you
Whilst you were away
Whilst you were gone...
(...stop.)
Tap to rate this tab
 
# A B C D E F G H I J K L M N O P Q R S T U V W X Y Z