Song name
# A B C D E F G H I J K L M N O P Q R S T U V W X Y Z

Pulp - Theres No Emotion tab

Pulp
There's No Emotion
(Jarvis Cocker, Russell Senior, Candida Doyle, Peter Mansell)

Intro
 G(riff 1)
-----3--------------3-----------|
-------0------------------------|
----------------------0---------|
--------------------------------|
-----------0h2-0----------0h2-0-|
-3-------3-------3------3-------|

G(w/riff 1)
As I lay down in the bedroom
             C7             G
There came a sound from far away
As I strained my ears to listen
                C7          G
I could hear a faint voice say:

         Bm                G
"In your heart, there's no emotion
         Bm                         F
And your soul, your soul just dried away
            Bm                        Am
There's no love, no love left in your body;
G#              G
Standing empty forever,
    C7            G
and colder every day."

So I spent a night without you
Oh, yes, I spent a night outdoors
Staring in to unknown faces
Trying to feel just like before

In your heart, there's no emotion
And your soul, your soul just dried away
There's no love, no love left in your body;
Standing empty forever,
and colder every day.

(Oh yeah.)

 G                    C7              G                           C7
--------------------------------------------------------------------------------|
--------------------------------------------------------------------------------|
---------------------3-3-3-3-3-3-3--------------------------------3-3-3-3-3-3-3-|
--------------------------------------------------------------------------------|
-2--2-2--2-2--0----2---------------0-3--0---0-2--2-2--2-2--0----2---------------|
----------------3-------------------------3------------------3------------------|
   G          Bm                G               Bm              F
--------------------------------------------------------------------------------|
--------------------------------------------------------------------------------|
--------------------------------------------------------------------------------|
----------------------2-2-0h2-0-----------------------------2-2-----------------|
-0-2--0----0--2-2-2-2-----------2-2-2-2-2-2-2-0-2-2-2-2-2-2-----3-3-3-3-3-3-3-3-|
--------3-----------------------------------------------------------------------|
 Bm              Am               G
-----------------------------------|
-----------------------------------|
-----------------------------------|
-----------------------------------|
-2-2-2-2s5-5-5-5-3-3-3-3-3-3-3-2---|
---------------------------------3-|


No, I don't believe in voices
Because I hear them all the time
Scraping tears from hardened faces
With their stupid ugly rhymes

In your heart, there's no emotion
And your soul, your soul just dried away
There's no love, no love left in your body;
Standing empty forever
And colder every day
G#             G
Standing empty forever,
C7               G         C7
And colder every day.

G                         C7          G
(And this is where the story starts.)
            C7                 G
Holding hands that hold you forever
      C7                 G
Only love will keep you together
        C7                 G
Holding hands that hold you forever
        C7                 G
Holding hands that throw you forever
C7                 G
Away
C7                 G
Away
C7                 G
Oh.
Tap to rate this tab
 
# A B C D E F G H I J K L M N O P Q R S T U V W X Y Z