Pulp - The Never-ending Story tab

Pulp
The Never-Ending Story
(Jarvis Cocker, Russell Senior, Candida Doyle, Peter Mansell)

Violin riff
---7-----7----------------7-----7-------------|
---------------8-8-8------------------8-8-8---|
-----9-9---9-9--------------9-9---9-9---------|
----------------------------------------------|
----------------------------------------------|
----------------------------------------------|

Guitar chords
---0-0-0-0-0-0-3-3-3------0-0-0-0-0-0-3-3-3---|
---0-0-0-0-0-0-3-3-3------0-0-0-0-0-0-3-3-3---|
---0-0-0-0-0-0-0-0-0------0-0-0-0-0-0-0-0-0---|
---2-2-2-2-2-2-0-0-0------2-2-2-2-2-2-0-0-0---|
---2-2-2-2-2-2-2-2-2------2-2-2-2-2-2-2-2-2---|
---0-0-0-0-0-0-3-3-3------0-0-0-0-0-0-3-3-3---|

A				 G
When all should be done and gone
A			    G
He comes round again to see
A			   G
He can't keep himself away
A					Riff (Em / G)
He touches her hand and it starts again

His work is an ugly mess
He prods and it cries in pain
He kicks and it starts to scream
He hurries away where she cannot see

When all should be done and gone
He comes round again to see
He can't keep himself away
He touches her hand and it starts again

Cm
Moving so slowly
Droplets of kindness
That poison and choke
					   Riff (Em / G)
When this thing should have died long ago!

The entrails are soft and warm
This time it must be the end
One touch and it lives again
He keeps it alive to be part of its pain
(And that's mercy
And that's compassion
And that's being good friends in a crisis.
What's one corpse between friends?)

Oh
Oh-oh-oh
Oh-oh-oh
Oh-oh-oh
Oh... Leave it boy. Just leave it alone!
Stop scratching or it'll never heal!
Just let it lie in peace
Get out of the way, get out of the way!

The brakes cannot last for long
He knows he must let it go
He knows but he keeps a hold
He touches her hand and it starts again

Moving so slowly
He drops it so gently
Urging its life
To a peak to torment it again!
Tap to rate this tab
 
# A B C D E F G H I J K L M N O P Q R S T U V W X Y Z