Song name
# A B C D E F G H I J K L M N O P Q R S T U V W X Y Z

Pulp - A Little Soul tab

Pulp
A Little Soul
(Jarvis Cocker, Nick Banks, Candida Doyle, Steve Mackey, Mark Webber)

Intro
 G      C      C      D    Dsus4
------------------------2-3-----|
-----------1---1-1-1----3-3-----|
-0-0-----------0-0-0--2---------|
-0---0h2---2---2-0-2--0---------|
---------3-----3----------------|
-3------------------------------|


(riff 1)
(2x)
a---2--2--2-2--0---0--2--2--2-2-2-0---0-|
e-3--------------3------------------3---|
Tap to rate this tab
 
# A B C D E F G H I J K L M N O P Q R S T U V W X Y Z