Song name
# A B C D E F G H I J K L M N O P Q R S T U V W X Y Z

Pulse Ultra - Build Your Cages tab

THIS IS PULSE ULTRA'S "BUILD YOUR CAGES" FROM THEIR "HEADSPACE" ALBUM. TUNING IS D STANDARD.
TOOK ME A WHILE TO FIGURE THIS ONE OUT. ENJOY AND LEAVE COMMENTS!

INTRO:
D|---------------------------------------------|
A|---------------0---------------------0-------|
F|---------------------------------------------|
C|---9-7-7-10-10---10-10---9-5-5-10-10---10-10-|
G|-7---------------------7---------------------|
D|-0---5-5--8--8----8--8-0---3-3--8--8----8--8-|

D|---------------------------------------------|
A|---------------0---------------------0-------|
F|---------------------------------------------|
C|---9-7-7-10-10---10-10---9-5-5-10-10---X-X-X-|
G|-7---------------------7---------------X-X-X-|
D|-0---5-5--8--8----8--8-0---3-3--8--8---X-X-X-|
  
D|--------------------------|-[3X]-----------------------|
A|---------------0----------|-----------------0----------|
F|-----9-9------------------|----------------------------|
C|-9-9-7-7------------------|-9-9-12-12------------------|
G|-7-7-----10-10---10-10-10-|-7-7-10-10-10-10---10-10-10-|
D|----------8--8----8--8--8-|------------8--8----8--8--8-|

PRE-VERSE 1: [MUTED, BUT LET THE LOW D'S SUSTAIN]
D|-----------------------------------------------------------------|
A|-----------------------------------------------------------------|
F|-----------------------------------------------------------------|
C|---------------2-------------------------------4-----------------|
G|-----------5-0-------------5-0-5-----------5-0-------------5-0---|
D|-0-0-0-2-3-------0-0-0-2-3-------0-0-0-2-3-------0-0-0-2-3-----3-|

VERSE IS THE SAME, BUT FULL MUTE ON ALL NOTES "Build your cages pray for freedom..."

PRE-CHORUS 1:
D|-------------------------------|
A|-------------------------------|
F|-----------------------------2-|
C|-----------------4-----------0-|
G|-----0-2-3-5-3-5-------0-2-3---|
D|-0-0---------------0-0---------|

CHORUS: [2X] "Sacrifice everything you know you love..."
D|--------------------------|-[3X]-----------------------|
A|---------------0----------|-----------------0----------|
F|-----9-9------------------|----------------------------|
C|-9-9-7-7------------------|-9-9-12-12------------------|
G|-7-7-----10-10---10-10-10-|-7-7-10-10-10-10---10-10-10-|
D|----------8--8----8--8--8-|------------8--8----8--8--8-|

PRE-VERSE 2:
D|-----------------------------------------------------------------|
A|-----------------------------------------------------------------|
F|---------------4---------------4---------------0---------------4-|
C|---------------7---------------4---------------4-----------------|
G|-----------5-0-------------5-0-------------5-0-------------5-0---|
D|-0-0-0-2-3-------0-0-0-2-3-------0-0-0-2-3-------0-0-0-2-3-------|

VERSE
PRE-VERSE 2

INTRO [VARIATION]: "Dreams are seldom what they seem..."
D|------------------------------------------------|
A|---------------0---------------------0----------|
F|------------------------------------------------|
C|---9-7-7-10-10---10-10---9-5-5-10-10---10-10-10-|
G|-7---------------------7------------------------|
D|-0---5-5--8--8----8--8-0---3-3--8--8----8-8--8-|

D|---------------------------------------------|
A|---------------0---------------------0-------|
F|---------------------------------------------|
C|---9-7-7-10-10---10-10---9-5-5-10-10---X-X-X-|
G|-7---------------------7---------------X-X-X-|
D|-0---5-5--8--8----8--8-0---3-3--8--8---X-X-X-|

CHORUS [REPEAT THE 3X PART 2X AFTER PLAYING CHORUS 2X]

BREAK: "You're so close to nothing..."
D|-[6X]------------------|---------------------------|
A|-----------------------|---------------------------|
F|-----------------------|-----------------------7---|
C|-----------------4-----|-----------------4-5-7-5-0-|
G|-----0-2-3-5-3-5-------|-----0-2-3-5-3-5-------3-0-|
D|-0-0---------------0-0-|-0-0-----------------------|
   MUTE THESE TWO NOTES ----------->     . .

CHORUS [FIRST PLAY VARIATION]:
D|--------------------------|---------------------------|
A|---------------0----------|-----------------0---------|
F|-----9-9------------------|-------------------9-12-11-|
C|-9-9-7-7------------------|-9-9-12-12-----------------|
G|-7-7-----10-10---10-10-10-|-7-7-10-10-10-10---7-10--9-|
D|----------8--8----8--8--8-|------------8--8-----------|

OUTRO: [LET IT RING] "Dreams are seldom what they seem..."
D|---|
A|---|
F|---|
C|---|
G|---|
D|-0-|
Tap to rate this tab
# A B C D E F G H I J K L M N O P Q R S T U V W X Y Z