Guitaretab - guitar tabs
Song name
# A B C D E F G H I J K L M N O P Q R S T U V W X Y Z

Pun Jabi - Cash And Coke tab

Pun Jabi- "Cash and Coke"

Verses- PLAY 4X EACH VERSE
E|----------|---------|--------|--------|
B|----------|---------|--------|--------|
G|-----7----|----5----|---4----|----2---|
D|-----7----|----3----|---2----|----2---|
A|-----5----|----3----|---2----|----0---|
E|----------|---------|--------|--------|
**Hit Each Note 8x**

Chorus:PLayed 2x
 **PLay This Part 3x**
E|-------------------------------------|
B|-------------------------------------|
G|--------4-4-4---2-2--5-5-5-----------|
D|-4-4-4--4-4-4---2-2--3-3-3-----------|
A|-4-4-4--2-2-2---0-0--3-3-3-----------|
E|-2-2-2-------------------------------|
[ Tab from: http://www.guitaretab.com/p/pun-jabi/29588.html ]
Then Play this Part only once:
E|----------------------------------------|
B|----------------------------------------|
G|-9-9-9-9--7-7-7-7--5-5-5-5--7-7-7-7-----|
D|-9-9-9-9--7-7-7-7--5-5-5-5--7-7-7-7-----|
A|-7-7-7-7--5-5-5-5--3-3-3-3--5-5-5-5-----|
E|----------------------------------------|

Solo(Played over Verse.Verse only gets played 2x this time)

E|-----------------------------------------|
B|-----------------------------------------|
G|-12-14-15-17--14-15-17-15----------------|
D|-12-14-15-17--14-15-17-15----------------|
A|-10-12-13-15--12-13-15-13----------------|
E|-----------------------------------------|
***each note played 8x****

Outro:
Just Mess around with the chorus a bit. Play it faster and the drums should be kickin' haha. 

Order Goes:
Intro(no guitar)
Verse 
Chorus
Verse
Chorus
Verse and Solo (Shortened Verse)
Chorus
Outro