Song name
# A B C D E F G H I J K L M N O P Q R S T U V W X Y Z

Punchbuggy - Cletus tab

-----------------------------------------------------------------------------
      "Cletus" by Punchbuggy (http://www.myspace.com/thebandpunchbuggy)
-----------------------------------------------------------------------------
Tabbed by: Jasgor9

Tuning: Standard (E,A,D,G,B,e)


Intro (0:00-0:08):

e|--------------------------------------------------------------------------|
B|--------------------------------------------------------------------------|
G|--------------------------------------------------------------------------|
D|-6-6-666\4-4-444--4-4-444-------------------------------------------------|
A|-4-4-444\2-2-222--2-2-222--4-4-444----------------------------------------|
E|---------------------------2-2-222----------------------------------------|



Verse (0:09-0:25 , 0:42-0:57):

Play this the first time:
e|--------------------------------------------------------------------------|
B|--------------------------------------------------------------------------|
G|--------------------------------------------------------------------------|
D|-7\6xxxxxx--7\6xxxxxx-----------------------------------------------------|
A|-5\4xxxxxx--5\4xxxxxx--777777777777888888888888---------------------------|
E|-----------------------555555555555666666666666---------------------------|

Then this the second time:
e|--------------------------------------------------------------------------|
B|--------------------------------------------------------------------------|
G|--------------------------------------------------------------------------|
D|-7\6-6-6-6--7\6-6-6-6-----------------------------------------------------|
A|-5\4-4-4-4--5\4-4-4-4--777777777777888888888888---------------------------|
E|-----------------------555555555555666666666666---------------------------|



Chorus (0:26-0:41 , 0:58-1:15 & 1:30-2:02):

Exact same as "Intro".



Interlude (1:24-1:29 & 2:03-2:13):

e|--------------------------------------------------------------------------|
B|--------------------------------------------------------------------------|
G|--------------------------------------------------------------------------|
D|-7\6-6-6-6--7\6-6-6-6--7\6-6-6-6--7-6-------------------------------------|
A|-5\4-4-4-4--5\4-4-4-4--5\4-4-4-4--5-4-------------------------------------|
E|--------------------------------------------------------------------------|



Solo (1:14-1:23):

e|--------------------------------------------------------------------------|
B|--------------------------------------------------------------------------|
G|--------------------------------------------------------------------------|
D|-6-6-xxx-9-9-xxx-11--11-xxx--6-6-xxx-6-6-xxx-9-9-xxx--11-11-xxx-11-11-xxx-|
A|-4-4-xxx-7-7-xxx-9---9--xxx--4-4-xxx-4-4-xxx-7-7-xxx--9--9--xxx-9--9--xxx-|
E|--------------------------------------------------------------------------|



What to play:

Intro/Chorus Riff x2
Verse x1
Intro/Chorus Riff x4
Verse x1
Intro/Chorus Riff x4
Solo x2
Interlude Riff x1
Intro/Chorus Riff x8
Interlude Riff x1



=============================================================================
| /  slide up
| \  slide down
| h  hammer-on
| p  pull-off
| ~  vibrato
| +  harmonic
| x  Mute note
=============================================================================
Tap to rate this tab
 
# A B C D E F G H I J K L M N O P Q R S T U V W X Y Z