Song name
# A B C D E F G H I J K L M N O P Q R S T U V W X Y Z

Punchline - A Beautiful Green tab

Help us improve GuitareTab! Take a short survey!
----------------------------------------------------------------------------
                     Punchline - A Beautiful Green
                             Action(2004)
----------------------------------------------------------------------------

credit to steve and gabe for tabbing

eric
ug: JesseLaceyIsGod
email: ilikesubs123@aol.com

tuning: eBGDAE(standard)

Whole song: G Am F
Lead: C octave  Cmajor7  C5 (power chord w/o C octave)
Middle section of song: ring out C power chord w/o "3rd fret A string" C in the bass.


--------------------------------------------------------------------------------

Punchline
A Beautiful Green
By Gabe


1st guitar
e --------------------|
b---------------------|
g --4---5---2---------|
d --5---7---3---------|
a --5---7---3---------|
e --3---5---1---------|

Lead Guitar
e --------------------|
b---------------------|
g --5--4--5-----------|
d --x--5--5-----------|
a --3--3--3-----------|
e --------------------|

Acoustic Gyuitar at the end
e --------------------|
b---------------------|
g --------5---------2-|
d -----5---------5----|
a --3---------3-------|
e --------------------|
Related for A Beautiful Green tab