Song name
# A B C D E F G H I J K L M N O P Q R S T U V W X Y Z

Punchline - Wars Will Always Happen tab

The other tab for the intro of this is pretty wrong. I'm working on a tab for the whole 
to go up on my site. www.punchtabs.com I have most of the song written out. So look out 
it. -Gabe

aim-AmzGabe

By: Punchline
Album: 37 everywhere
Song: Wars Will Always Happen(intro)


Guitar 2
e |----------------------------------------|
b |----------------------------------------|
g |---------------14--12--11----------11b--|
d |--/12--12--14--------------14--12-------|
a |----------------------------------------|
E |----------------------------------------|

Guitar 2 Contd'
e |-----------------------------|
b |-----------------------------|
g |----------11-----------------|
d |--12--14------14--12---------|
a |---------------------14--12--|
E |-----------------------------|


Guitar 2 Contd'
e |------------------------------|------------------------------|
b |------------------------------|------------------------------|
g |------------------------------|------------------------------|
d |----------16--14--12----------|----------16--14--12----------|
a |--12--14--------------14--12--|--12--14--------------14--12--|
E |------------------------------|------------------------------|


Guitar 2 Contd'
e |-------------------------------|
b |-------------------------------|
g |--------------14b--------------|
d |----------16-------14--14b~~~--|
a |--12--14-----------------------|
E |-------------------------------|
Tap to rate this tab
# A B C D E F G H I J K L M N O P Q R S T U V W X Y Z