Song name
# A B C D E F G H I J K L M N O P Q R S T U V W X Y Z

Punchline - Fake The Snake And The Birthday Cake tab

Intro Guitar 1 x's 2 
e |--------------------------------|------|
b |------------------0-0h1p0-------|------|
g |--2h4--5--0--2p0-----------2p0--|--7~--|
d |--------------------------------|--7~--|
a |--------------------------------|--5~--|
E |--------------------------------|------|
on the second time don't 2p0 at the end and just end with the D.

Intro Guitar 2
e |----------------------------------------|--------|
b |-----------15------------15---------15--|--15~~--|
g |--12--14-------/12--12-------12/14------|--12~~--|
d |----------------------------------------|--------|
a |----------------------------------------|--------|
E |----------------------------------------|--------|

"hip as in hypocrite"
e |-------|
b |-------|
g |-------|
d |--/5x--|
a |--/5x--|
E |--/3x--|



Guitar 1 x's 4 
e |-----------|----------|
b |-----------|----------|
g |-----5-----|----------|
d |--3--5--5--|--xxxxxx--|
a |--3--3--5--|--xxxxxx--|
E |--1-----3--|--xxxxxx--|


Guitar 2
e |---------------------------------------------------------|
b |---------------------------------------------------------|
g |----------9--7--9--7----9--7--6--------------------------|
d |---/5--5-------------------------9--7--------------------|
a |---------------------------------------------------------|
E |---------------------------------------------------------|

Guitar 2 contd'
e |-----------------------------------|--------------|
b |-----------------------------------|--------12~~--|
g |-----9--7--9--7----9--7--6---------|--12~~--------|
d |--5-------------------------9--7---|--------------|
a |-----------------------------------|--------------|
E |-----------------------------------|--------------|





Guitar 1
e |---------------------------|
b |---------------------------|
g |--5~~~---4-4-4/5--4-4-4/5--|
d |--5~~~---x-x-x/x--x-x-x/x--|
a |--3~~~---2-2-2/3--2-2-2/3--|
E |---------------------------|



Guitar 1 contd'
e |--------------------------------|
b |--------------------------------|
g |-----------------------------|
d |-----5-5-5--7--7-5-3-3--3~~--|
a |-----5-5-5--7--7-5-3-3--3~~--|
E |-----3-3-3--5--5-3-1-1--1~~--|




Guitar 1 contd' 
All chords are palm muted
e |--------------|
b |--------------|
g |--5-----------|
d |--5--7--5--3--|
a |--3--7--5--3--|
E |-----5--3--1--|




Guitar Chorus x's 4
e |-----------|-----------------|
b |-----------|-----------------|
g |-----------|-----------------|
d |--3--7--5--|--3/5--3/5--3/5--|
a |--3--7--5--|--3/5--3/5--3/5--|
E |--1--5--3--|--1/3--1/3--1/3--|
play the first part 4 times. on the 4th time don't play the G.
then slide from the F to G from there.


Guitar 2 Chorus lead 
e |---------------------------------------------------10-10-------------------------|
b |---------8--x-x-8----------10-X-X-10--------10-10---------10-10------------------|
g |--9/10---10-x-x-10--10/12--12-X-X-12--12-12----------------------12b--12--12p10--|
d |---------------------------------------------------------------------------------|
a |---------------------------------------------------------------------------------|
E |---------------------------------------------------------------------------------|


Guitar 2 Chorus lead contd'
e |---------------------------------------------------10-10---------------------------|
b |---------8--x-x-8----------10-X-X-10--------10-10---------10-10--------------------|
g |--9/10---10-x-x-10--10/12--12-X-X-12--12-12----------------------12--10--ph12--10--|
d |-----------------------------------------------------------------------------------|
a |-----------------------------------------------------------------------------------|
E |-----------------------------------------------------------------------------------|






Guitar 1 x's 4 
e |-----------|----------|
b |-----------|----------|
g |-----5-----|----------|
d |--3--5--5--|--xxxxxx--|
a |--3--3--5--|--xxxxxx--|
E |--1-----3--|--xxxxxx--|


Guitar 2
e |---------------------------------------------------------|
b |---------------------------------------------------------|
g |----------9--7--9--7----9--7--6--------------------------|
d |---/5--5-------------------------9--7--------------------|
a |---------------------------------------------------------|
E |---------------------------------------------------------|

Guitar 2 contd'
e |-----------------------------------|--------------|
b |-----------------------------------|--------12~~--|
g |-----9--7--9--7----9--7--6---------|--12~~--------|
d |--5-------------------------9--7---|--------------|
a |-----------------------------------|--------------|
E |-----------------------------------|--------------|





Guitar 1
e |---------------------------|
b |---------------------------|
g |--5~~~---4-4-4/5--4-4-4/5--|
d |--5~~~---x-x-x/x--x-x-x/x--|
a |--3~~~---2-2-2/3--2-2-2/3--|
E |---------------------------|



Guitar 1 contd' mute the last chord at the end.
e |---------------------------|
b |---------------------------|
g |---------------------------|
d |-----5-5-5--7--7-5-3-3--3--|
a |-----5-5-5--7--7-5-3-3--3--|
E |-----3-3-3--5--5-3-1-1--1--|




e |--------------------|
b |--------------------|
g |--12--10--12ph--10--|
d |--------------------|
a |--------------------|
E |--------------------|





Guitar 1 Chorus x's 4
e |-----------|
b |-----------|
g |-----------|
d |--3--7--5--|
a |--3--7--5--|
E |--1--5--3--|



Guitar 2 Chorus lead 
e |---------------------------------------------------10-10-------------------------|
b |---------8--x-x-8----------10-X-X-10--------10-10---------10-10------------------|
g |--9/10---10-x-x-10--10/12--12-X-X-12--12-12----------------------12b--12--12p10--|
d |---------------------------------------------------------------------------------|
a |---------------------------------------------------------------------------------|
E |---------------------------------------------------------------------------------|


Guitar 2 Chorus lead contd'
e |---------------------------------------------------10-10---------------------------|
b |---------8--x-x-8----------10-X-X-10--------10-10---------10-10--------------------|
g |--9/10---10-x-x-10--10/12--12-X-X-12--12-12----------------------12--10--ph12--10--|
d |-----------------------------------------------------------------------------------|
a |-----------------------------------------------------------------------------------|
E |-----------------------------------------------------------------------------------|




Guitar 1 bridge x's 2
e |-----------|-----------------|
b |-----------|-----------------|
g |-----5-----|-----4--5--------|
d |--3--5--5--|--7--4--5--5--3--|
a |--3--3--5--|--7--2--3--5--3--|
E |--1-----3--|--5--------3--1--|
Play the first part twice. Then on the 
second time playing the last chord(F)
Mute it untill the next chorus.



Guitar Chorus x's 4
e |-----------|
b |-----------|
g |-----------|
d |--3--7--5--|
a |--3--7--5--|
E |--1--5--3--|





Guitar 1 Chorus x's 4
e |-----------|
b |-----------|
g |-----------|
d |--3--7--5--|
a |--3--7--5--|
E |--1--5--3--|



Guitar 2 Chorus lead 
e |---------------------------------------------------10-10-------------------------|
b |---------8--x-x-8----------10-X-X-10--------10-10---------10-10------------------|
g |--9/10---10-x-x-10--10/12--12-X-X-12--12-12----------------------12b--12--12p10--|
d |---------------------------------------------------------------------------------|
a |---------------------------------------------------------------------------------|
E |---------------------------------------------------------------------------------|


Guitar 2 Chorus lead contd'
e |---------------------------------------------------10-10---------------------------|
b |---------8--x-x-8----------10-X-X-10--------10-10---------10-10--------------------|
g |--9/10---10-x-x-10--10/12--12-X-X-12--12-12----------------------12--10--ph12--10--|
d |-----------------------------------------------------------------------------------|
a |-----------------------------------------------------------------------------------|
E |-----------------------------------------------------------------------------------|
Tap to rate this tab
 
# A B C D E F G H I J K L M N O P Q R S T U V W X Y Z