Guitaretab - guitar tabs
Song name
# A B C D E F G H I J K L M N O P Q R S T U V W X Y Z

Punchline - Battlescars tab

----------------------------------------------------------------------------
                        Punchline -
                             Action(2004)
----------------------------------------------------------------------------

credit to steve and gabe for tabbing

eric
ug: JesseLaceyIsGod
email: ilikesubs123@aol.com

this is straight from Steven Soboslai. Big thanks to him. These are just the chords. If 
one understands them, hit me up and i'l tab it. But mine(the one under it) is pretty 
to steve's transcription.

Battlescars: Opening Verse: C#m7 A9 Bsus4 E B
Chorus: C#m7 A9 G#m7 F#m7
Transition: E B C#m
2nd verse: A C#m A C#m A C#m A A (single notes)
Bridge E E A A C#m7 C#m7 F#m G#m A B :

--------------------------------------------------------------------------------

Punchline - battlescars

Here's my repolished Tab of Battlescars

intro
e --------------------|
b---------------------|
g -------4----4~~~----|
d ----2-------2~~~----|
a -4------------------|
e --------------------|


e --------------------|
b --------------------|
g -------4----4~~~----|
d ----2-------2~~~----|
a-0-------------------|
e --------------------|

e --------------------|
b --------------------|
g -------4----4~~~----|
d ----2-------2~~~----|
a -2------------------|
e --------------------|


e --------------------|
b --------------------|
g -------4~~~---------|
d -------2~~~---------|
a ----2---------------|
e -0------------------|


e -------------------|
b -------------------|
g --------4----4-----|
d -----4-------4-----|
a --2----------------|
e -------------------|

repeat everything above twice

e --------------------|
b --------------------|
g -------4----4~~~----|
d ----2-------2~~~----|
a-0-------------------|
e --------------------|

e --------------------|
b --------------------|
g -------4----4~~~----|
d ----2-------2~~~----|
a -2------------------|
e --------------------|

e --------------------|
b---------------------|
g -------4----4~~~----|
d ----2-------2~~~----|
a -4------------------|
e --------------------|

[ Tab from: http://www.guitaretab.com/p/punchline/90681.html ]
e --------------------|
b --------------------|
g -------4----4~~~----|
d ----2-------2~~~----|
a-0-------------------|
e --------------------|

e --------------------|
b --------------------|
g -------4----4~~~----|
d ----2-------2~~~----|
a-0-------------------|
e --------------------|

e --------------------|
b --------------------|
g -------4----4~~~----|
d ----2-------2~~~----|
a -2------------------|
e --------------------|

e --------------------|
b --------------------|
g ---4~-4-4-4---------|
d ---2~-2-2-2---------|
a --------------------|
e --------------------|


chorus
e ---------------------------|
b ---------------------------|
g ----4----4------4-----4----|
d ----2----2------2-----2----|
a ----4----0------x-----x----|
E----------x------4-----2----|
play 4 times


e ----------------------------|
b -------------5~~------------|
g ---4~~--4~~--6~~------------|
d ---2~~--4~~--6~~------------|
a ---2~~--2~~--4~~------------|
e ----------------------------|

e ----------------------------|
b ----------------------------|
g --------2---6---------------|
d ----2---2---6---4--6--7-----|
a ----2---0---4---4--6--7-----|
e ----0-----------2--4--5-----|

2nd verse
e ---------------------------|
b ---------------------------|
g -------4---2---4------4----|
d -------2---2---4--2---4----|
a -------4---0---2--2---2----|
e ------------------0--------|
play 2 times

e ----------------------------|
b ----4/5--55555--------------|
g ----------------------------|
d ----------------------------|
a ----------------------------|
e ----------------------------|
listen for muting and timing

e ----------------------------|
b ----------------------------|
g ---2~~~---------------------|
d ---2~~~---------------------|
a ---0~~~---------------------|
e ----------------------------|
Just play this chord and mute it a
little, then let it ring.

chorus
e ---------------------------|
b ---------------------------|
g ----4----4------4-----4----|
d ----2----2------2-----2----|
a ----4----0------x-----x----|
E----------x------4-----2----|
play 8 times
Related for Battlescars tab
Advertisement will be closed in 10 seconds