Song name
# A B C D E F G H I J K L M N O P Q R S T U V W X Y Z

Pungent Stench - No Guts No Glory tab

PUNGENT STENCH-No Guts, No Glory
Ampeauty-2004
Copyright Metal Blade Records
Transcribed by Daniil Laletin
e-mail: dlaletin@mail.ru
version 1.0 May 2005

All corrections are welcome.

 " - tremolo
 / - slide down
 \ - slide up
 . - palm mute
 ~ - long sound
 x - rest
 p - pull off
 h - hammer on
 tr - trill
 () - ghost note, sustained note
 * - artificial harmonics
 b - bend

 Tuning from low to high: C F A# D# G C

================================

 Riff 1
|----------------------------------|
|----------------------------------|
|----------------------------------|
|----------------------------------|
|-2---2---2-3-5-6---6--------------|
|-0---0---3-4-6-7---7---7h8-7h8p7--|

|-------------------------------|
|-------------------------------|
|-------------------------------|
|----------------------------7--|
|-2---2---2-3-5-6-5-5-8--9---5--|
|-0---0---3-4-6-7-6-3-6--7------|

|----------------------------------|
|----------------------------------|
|----------------------------------|
|----------------------------------|
|-2---2---2-3-5-6---6--------------|
|-0---0---3-4-6-7---7---7h8-7h8p7--|

|--------------------------------|
|--------------------------------|
|--------------------------------|
|--------------------------------|
|-2---2---2-3-5-8--7-7-10--11-10-|
|-0---0---3-4-6-9--8-5--8---9--8-|



 Riff 2
|----------------------------------------------------------------|
|----------------------------------------------------------------|
|----------------------------3-----------------------3------4~---|
|------------------------------2-----------------------2---------|
|-2-2-2-----2-2-2-----2-2--1-------2-2-2-----2-2-2-1------2------|
|-0-0-0-----0-0-0-----0-0----------0-0-0-----0-0-0---------------|
  . . .     . . .     . . let ring . . .     . . .   let ring


 Riff 3
|---------------------|
|---------------------|
|-3-------------------|
|-2-------------------|
|-1---2-2-2-2-2-2-2-2-|
|-----0-0-0-0-0-0-0-0-|
      . . . . . . . .


 Riff 4
|------------------------------------------------------|
|------------------------------------------------------|
|------------------------------------------------------|
|-2--2-2-2-2--2-2---2-3-2----2--2-2---2--3-2---2-5-2---|
|-0--0-0-0-0--0-0-2-0-1-0-2--0--0-0-2-0--1-0-2-0-3-0-2-|
|-----------------0-------0---------0--------0-------0-|


 Riff 5
|-----------------------------------|------------------------------------------|
|-----------------------------------|------------------------------------------|
|-----------------------------------|------------------------------------------|
|-----------------------------------|------------------------------------------|
|-7-7-7-8-8-8-7----7-7-7-8-8-8-7----|-5-5-5-6-6-6----------5-5-5-6-6-6---------|
|-5-5-5-6-6-6-5----5-5-5-6-6-6-5----|-3-3-3-4-4-4-3-3-0-0--3-3-3-4-4-4-3-3-0-0-|


 Fill 1
|-----------------------------------------|
|-----------------------------------------|
|-----------------------------------------| several
|-2----------(2)----------feedback here---|  times
|-2----------(2)--------------------------|
|-0----------(0)--------------------------|

Tap to rate this tab
 
# A B C D E F G H I J K L M N O P Q R S T U V W X Y Z