Song name
# A B C D E F G H I J K L M N O P Q R S T U V W X Y Z

Pungent Stench - Blood Pus And Gastric Juice tab

Pungent Stench - Blood, Pus and Gastric Juice (Rare groove mix)
From the album Dirty Rhymes & Psychotronic Beats (1993)

Tuning - (Standard D) - D G C F A D
Tab difficulty: Novice-Intermediate

V.linnas@hotmail.com


Bass intro, make pickslide at 00:04 in low E string
Hit -15- and bend it from D string at 00:12


Riff 1

||---------------------|| 
||---------------------||
||---------------------||
||---------------------||
||-7--8-7~-------------||
||-5------8-10h-8p-7~--||

Riff 2

||---------------|| 
||---------------||
||---------------||
||-2-------------||
||-2-----5----8--||
||-0-----3----6--||

Riff 3

||-----------------------|| 
||-----------------------||
||-----------------------||
||-----------------------||
||-777-8-66-777-8-7-8-7--||
||-555-6-44-555-6-5-6-5--||

Riff 4

||-----------------------------------------------------|| 
||-----------------------------------------------------||
||-----------------------------------------------------||
||-----------------------------------------------------||
||-5------3------6------3------5------3------6------3--||
||-3-0000-1-0000-4-0000-1-0000-3-0000-1-0000-4-0000-1--||
     ....   ....   ....   ....   ....   ....   ....

Riff 5

||------------|| 
||------------||
||------------||
||-2----------||
||-2---3/6-4--||
||-0-0-1/4-2--||
     .
   
Riff 6

||--------------------------|| 
||--------------------------||
||---------------------7-7--||
||---------------------7-7--||
||--------------------------||
||-0-0-000-0-0-000-0-0------||
   . . ... . . ... . .

Solo starts 3:40 (Riff 2)

||------------------------------|| 
||------------------------------||
||------------------------------||
||------------------------------||
||-------------------------9~~--||
||-8-6-8-6-5-7-5-7-6-8-6-8------||

||---------------------------------------------||
||---------------------------------------------|| 
||---------------------------------------------||
||---------------------------------------------||
||---------------------------------------------||
||-14-12-14-12-11-13-11-13-11-12-14-12-11-12~~-||

                            Whammy
||---------------------------------|| 
||---------------------------------||
||---------------------------------||
||---------------------------------||
||-13-13-15b~~---------------17b~~-||
||---------------------------------||

Solo continues now with (Riff 1)

||-------------------------------------|| 
||-------------------------------------||
||-7b-7-7-7-7-7-7-7-9b--7-9-7b~~--7b~~-||
||-------------------------------------||
||-------------------------------------||
||-------------------------------------||

     4 Times
||----------------||-------------|| 
||----------------||-------------||
||-7-9-9b-7-9-----||-------------||
||------------7b--||--7b~~~~~~~~~||
||----------------||-------------||
||----------------||-------------||

Song flow:

Riff 1 - 8 times after bass intro
Riff 2 - 4x
Riff 1 - 8x
break
Riff 3 - 4x
Riff 4 - 2x
break <------ (Vocals start)
Riff 4 - 2x
break
Riff 4 - 2x
Riff 5 - 4x
Riff 4 - 2x
break
Riff 4 - 2x
break
Riff 4 - 2x
Riff 5 - 4x
Riff 4 - 2x
Riff 6 - 10x
Riff 4 - 2x
break
Riff 4 - 2x
break
Riff 4 - 2x
Riff 5 - 4x
Riff 4 - 2x
Bass
Riff 1 - 8x
Riff 4 - 4x (Solo starts)
Riff 1 - 8x


Rate & Comment!
Tap to rate this tab
# A B C D E F G H I J K L M N O P Q R S T U V W X Y Z