Song name
# A B C D E F G H I J K L M N O P Q R S T U V W X Y Z

Pungent Stench - Fuck Bizarre tab

Pungent Stench - Fuck Bizarre
From the album: Club Mondo Bizarre "For Members Only" 1994

Tuning: D G C F A D (D-standard, 1 step down)

Here is all the riffs, the song flow is very simple.

Any errors? contact: v.linnas@hotmail.com

Riff 1 (Aka intro)

||---------------||
||---------------||
||---------------||
||---------------||
||-2-8----8------||
||-0-6-00-6------||


Riff 2 (Palm muting)

||---------------||
||---------------||
||---------------||
||---------------||
||----8----8---8-||
||-00-6-00-6-0-6-||
   ..   ..   .

Riff 3 (Groovy stuff)

||-----------||
||-----------||
||-----------||
||-----------||
||---8----88-||
||-0-6-00-66-||


Riff 4 (Heavy palm mute)

||-----------------------------------------||
||-----------------------------------------||
||-----------------------------ends with---||
||-----------------------------------------||
||---5-6---6-7---5-6---6-7--(5-6-------8)--||
||-0-3-4-0-4-5-0-3-4-0-4-5--(3-4--and--6)--||
   . . . . . . . . . . . .

Riff 5 (The psycho chord part) *Repeat*

||-----------------------------------------||
||-666666666666666666655555555555555555555-||
||-444444444444444444433333333333333333333-||
||-----------------------------------------||
||-----------------------------------------||
||-----------------------------------------||

Simple but very heavy song!
Tap to rate this tab
# A B C D E F G H I J K L M N O P Q R S T U V W X Y Z