Song name
# A B C D E F G H I J K L M N O P Q R S T U V W X Y Z

Pungent Stench - Horny Little Piggy Bank tab

Pungent Stench - Horny Little Piggy Bank

from the album Dirty Rhymes & Psychotronic Beats (1993)

Tuning - (Standard D) - D G C F A D
Tab difficulty: Novice-Intermediate

If you find errors contact me

V.linnas@hotmail.com


Intro riff              Ends with these chords
       
||---------------------||-----------------||
||---------------------||-----------------||
||---------------------||-----------------||
||---------------------||-----------------||
||-6/5/6/5/6/5/6/5-6/5-||-9--8--9--8--7-6-||
||-4/3/4/3/4/3/4/3-4/3-||-7--6--7--6--5-4-||

Riff 1 - 4 Times

||------------------------------------------------|| 
||------------------------------------------------||
||------------------------------------------------||
||-------------------3----------------------------||
||-5-------3-----3-5---5--5-------7-5-7-5---------||
||-3-00000-1-000----------3-00000---------7-5-3-5-||
     .....   ...     .      .....

End with these chords again.

||-----------------||
||-----------------||
||-----------------||
||-----------------||
||-9--8--9--8--7-6-||
||-7--6--7--6--5-4-||

Riff 2 - 2 times

||----------------------------------------|| 
||----------------------------------------||
||----------------------------------------||
||----------------------------------------||
||-5/6----5--5/7---5--5/6----5-----3-5~~--||
||-3/4-00-3--3/5-0-3--3/4-00-3--3-5-------||
       ..        .        ..

Riff 3 - 4 times

||----------------------------------------|| 
||----------------------------------------||
||----------------------------------------||
||----------------------------------------||
||-5--------7----6---5/-4------------3-5~~||
||-3-000000-5-00-4-0-3/-2-000000-3-5------||
     ......   ..   .     ...... . .

Riff 4 - 4 Times

||-------------|| 
||-------------||
||-------------||
||-------------||
||------5-6-5--||
||-7b~--3-4-3--||


Intro Riff
Riff 3
Riff 4
Riff 1


Solo (improvised)

||---------------------------------------------------------|| 
||-----------------------------6---------6-----------------||
||-------6-8-9-8--8b-6~~-6-8-9---8-6-6-8---8-6-8b-6-8h-8~~-||
||---7-9---------------------------------------------------||
||-0-------------------------------------------------------||
||---------------------------------------------------------||
  Pm---~~

||---------------------------------------------------------|| 
||---------------------------------------------------------||
||-8b--6-8-6-8--8-10-8-10--8-10-11-10-8----8---------------||
||--------------------------------------10---10-8-10-------||
||---------------------------------------------------------||
||---------------------------------------------------------||
    Hammer on and pull offs

||--------------------------------------------|| 
||--------------------------------------------||
||--------------------------------------------||
||-8-10-8-10-----------8----------------------||
||-----------8-10-8-10---10-8-10~~10b-8-10~~--||
||--------------------------------------------||
  Hammer on and pull offs

||--------------------------------------------------------------------|| 
||--------------------------------------------------------------------||
||-8b-10~~-8-10-11-10-8---------8-6-8-6-8-10-11-10-8b-10~~-8----------||
||----------------------10-8-10------------------------------10-8-10~-||
||--------------------------------------------------------------------||
||--------------------------------------------------------------------||
                    Hammer on and pull offs

||------11-----------13----------15----------15-----------------------|| 
||---10----10-----12----12----14----15----14----12-10-12-10-----------||
||-8-----------10----------12----------12------------------12-10-12~~-||
||--------------------------------------------------------------------||
||--------------------------------------------------------------------||
||--------------------------------------------------------------------||
          Sweeps                         Hammer on and pull offs

Intro riff
Chords again (Dive with tremolo bar after) + Bass stuff

Riff 5 - 4 times

||--------------------------------|| 
||--------------------------------||
||--------------------------------||
||--------------------------------||
||-5-6666-6-5-4--5-6666-5-6-5-4-5-||
||-3-4444-4-3-2--3-4444-3-4-3-2-3-||

Riff 6 - 4 times

||-------------------------------|| 
||-------------------------------||
||-------------------------------||
||-------------------------------||
||-----5-7-----5-7------5-7b-5~~-||
||-3-5-----3-5------3-5----------||

Riff 4
Intro riff
Chords

Ending Bends

||------------|| 
||-12b-12b~~--||
||------------||
||------------||
||------------||
||------------||


Rate & Comment!
Tap to rate this tab
# A B C D E F G H I J K L M N O P Q R S T U V W X Y Z