Song name
# A B C D E F G H I J K L M N O P Q R S T U V W X Y Z

Pungent Stench - Shrunken And Mummified Bitch tab

SHRUNKEN AND MUMMIFIED BITCH
By: Pungent Stench
Album: Been Caught Buttering


TUNING: D (one whole step down)

RIFF A
e:-------------------------------------------------------------------|
B:-------------------------------------------------------------------|
G:-------------------------------------------------------------------|
D:-----------------------------------------------------------5----6--|
A:--8----7--------7------3----4----4--4-7--8----7----7--7-5--3----4--|
E:--6----5----0-0-5--0-0-1----2----2--2-5--6----5----5--5-3----------|
              . .    . .

RIFF B                     1,                           2,3,4
e:---------------------------|-------------------------------|
B:---------------------------|-------------------------------|
G:---------------------------|-------------------------------|
D:---------------------------|-------------------------------|
A:--2------------------7--8--|--3-3-2------------------7--8--|
E:--0--0-0-0-0-0-0-0-0-5--6--|--1-1-0--0-0-0-0-0-0-0-0-5--6--|
       . . . . . . . .                 . . . . . . . .

RIFF C
e:-----------------------|
B:-----------------------|
G:-----------------------|
D:-----------------------|
A:--4------2----3---3----|
E:--2--0-0-0--0-1-0-1-0--|
       . .    .   .   .
RIFF D
e:-------------------|
B:-------------------|
G:-------------------|
D:-------------------|
A:--2-2-2-2-2-2-2-2--|
E:--0-0-0-0-0-0-0-0--|
    . . . . . . . .

RIFF E
e:--------------------------------------------------------------|
B:--------------------------------------------------------------|
G:--------------------------------------------------------------|
D:--------------------------------------------------------------|
A:--2-2-2-2-2-2-2-2-2-2-2-2-2-2-2-2-7/8-4--7/8-5--7/8-4--7/8-5--|
E:--0-0-0-0-0-0-0-0-0-0-0-0-0-0-0-0-5/6-2--5/6-3--5/6-2--5/6-3--|
    . . . . . . . . . . . . . . . .

RIFF F
e:--------------------------------------|----------|-----|
B:--------------------------------------|-2nd time-|-END-|
G:--------------------------------------|----------|-----|
D:--------------------------------------|----------|-----|
A:--4--------6--------7--------6/7-6/7--|--6-7--4--|--2--|
E:--2-000000-4-000000-5-000000-4/5-4/5--|--4-5--2--|--0--|
      ......   ......   ......

RIFF G(under solo)
e:----------------------|
B:----------------------|
G:----------------------|
D:----------------------|
A:----------------------|
E:--111111113333444400--|

RIFF H
e:-------------------------------|
B:-------------------------------|
G:-------------------------------|
D:-------------------------------|
A:--/8-8-8--8-8-8-7--5-5--7-5-5--|
E:--/6-6-6--6-6-6-5--3-3--5-3-3--|

RIFF I
e:------------------------|
B:------------------------|
G:------------------------|
D:-------4----------------|
A:--3----2----5----5/6-5--|
E:--1---------3----3/4-3--|


Song Structure:

RIFF A 2x
RIFF B 1x
RIFF A 2x
RIFF C 12x
RIFF D 4x
RIFF E 2x
RIFF F 2x
RIFF E 2x
RIFF F 2x
RIFF G 8x
RIFF F 2x
RIFF H 4x
RIFF I 4x
RIFF E 2x
RIFF F 2x
RIFF E 2x
RIFF F 2x
RIFF A 2x
END

Tap to rate this tab
# A B C D E F G H I J K L M N O P Q R S T U V W X Y Z