Guitaretab - guitar tabs
Song name
# A B C D E F G H I J K L M N O P Q R S T U V W X Y Z

Pungent Stench - Lynndie She-wolf Of Abu Ghraib tab

PUNGENT STENCH-Lynndie (She-Wolf Of Abu Ghraib)
Ampeauty-2004

 " - tremolo
 / - slide down
 \ - slide up
 . - palm mute
 ~ - long sound
 x - rest
 p - pull off
 h - hammer on
 tr - trill
 () - ghost note, sustained note
 * - artificial harmonics
 b - bend

 Tuning from low to high: C F A# D# G C
=======================================

 Intro - with very light distortion
|---------------------------------------------------------|
|-----------8----8----8---8-------------------------------|
|-9----9----------------------7----7----6----6------------|
|-------------------------------------------------7---7---|
|---77---77---77---77---7---7---77---77---77---77---7---7-|
|---------------------------------------------------------|

|--------------------------------------------------|
|-----------8----8----8---8------------------------|
|-9----9----------------------------8--------------|
|-----------------------------10---------9~~-------|
|---77---77---77---77---7---7----77---77---7777777-|
|--------------------------------------------------|


 Riff 1
|------------------------------------------------------------|
|------------------------------------------------------------|
|------------------------------------------------------------|
|-2--------------2--------------2----------------------------|
|-2---/5-5/6\5---2---/3-3/6\3---2---/6-6/9\6-----------------|
|-0--------------0--------------0------------000-0-000-0-000-|
                                             ... . ... . ...
[ Tab from: http://www.guitaretab.com/p/pungent-stench/74788.html ]
 Riff 2 - use heavy palm muting here
|------------------------------------------|
|------------------------------------------|
|------------------------------------------|
|------------8-----------------------------|
|-2-2-8--2-2-6--2-2-8-----------------4~-7-|
|-0-0-6--0-0----0-0-6--3~-6-5h6p5p3p0------|
  . .    . .    . .
|------------------------------------|
|------------------------------------|
|------------------------------------|
|------------8-----------------------|
|-2-2-8--2-2-6--2-2-8--5--2-5--6-5-6-|
|-0-0-6--0-0----0-0-6--3--0-3--4-3-4-|
  . .    . .    . .


 Riff 3
|-------------------------------------------------|
|-------------------------------------------------|
|-------------------------------------------------|
|-------------------------------------------------|
|---------4-5---------4-5---------3-4---------3-4-|
|-3-5-6-3-----3-5-6-3-----3-5-6-3-----3-5-6-3-----|
  . . . .     . . . .     . . . .     . . . .

|---------------------------------------------------------|
|---------------------------------------------------------|
|---------------------------------------------------------|
|--------------------2---8/9-9----7/10-10----8-9-12-10-9--|
|---------4-5-3h4p3--2---6/7-7----5/-8--8----6-7-10--8-7--|
|-3-5-6-3------------0-0--------0----------0--------------|
                       .        .          .

 Riff 4
|-----------------------------------------------|
|-----------------------------------------------|
|-----------------------------------------------|
|-2~----------(2)-------------------------------|
|-2~----------(2)-------2x-----------2x-----1~--|
|-0~----------(0)-------0x---0-3~----0x---------|

|-----------------------------------------------|
|-----------------------------------------------|
|-----------------------------------------------|
|-2~----------(2)-------------------------------|
|-2~----------(2)-------2x-----------2x-----3~--|
|-0~----------(0)-------0x---0-3~----0x---------|


 Riff 5
|----------------------------------------|
|----------------------------------------|
|----------------------------------------|
|----------------------------------------|
|-----------------------------------4~-7-|
|-0-0-0-0-0-0-...etc-3~-6-5h6p5p3p0------|

|----------------------------------|
|----------------------------------|
|----------------------------------|
|----------------------------------|
|--------------------5--2-5--6-5-6-|
|-0-0-0-0-0-0-...etc-3--0-3--4-3-4-|


 Ending riff
|-----------------|
|-----------------|
|-----------------|Several
|-----------------|times
|-----------------|
|-000-0-000-0-000-|
  ... . ... . ...
Related for Lynndie She-wolf Of Abu Ghraib tab
Advertisement will be closed in 10 seconds