Song name
# A B C D E F G H I J K L M N O P Q R S T U V W X Y Z

Pungent Stench - Blood Pus And Gastric Juice tab

PUGENT STENCH-Blood, Pus And Gastric Juice
For God Your Soul... For Me Your Flesh (Original Release)
Transcribed by Daniil Laletin
e-mail: dlaletin@mail.ru
version 1.0 July 2003
accuracy 85%


Bass intro
|-------------|
|-------------|
|---8-7-------|
|-5-----5-8-7-|

Fill 1
|---------|
|---------|
|---------|
|---------|
|-7-----7-|
|-5-----5-|
        .

Riff 1
|----------------------------------------------------------|
|----------------------------------------------------------|
|----------------------------------------------------------|
|---10-9----------10-9----------10-9----------10-9---------|
|-7--8-7-7-10-9-7--8-7-7-1095-7--8-7-7-10-9-7--8-7-7-10-95-|
|-5------5--8-7-5------5--873-5------5--8-7-5------5--8-73-|


Fill 2
|---------|
|---------|
|---------|
|---------|
|-2---5-8-|
|-0---3-6-|


Riff 2
|---------------------|
|---------------------|
|---------------------|
|----------------6565-|
|-77-7-87-5-77-7------|
|-55-5-65-3-55-5------|

Riff 3
|------------------------------------------------------------------|
|------------------------------------------------------------------|
|------------------------------------------------------------------|
|------------------------------------------------------------------|
|-5---3---6---3---5---3---6---3---5---3---6---3---5---3---6---3----|
|-3-0-1-0-4-0-1-0-3-0-1-0-4-0-1-0-3-0-1-0-4-0-1-0-3-0-1-0-4-0-1-0--|


Riff 4
|---------|
|---------|
|---------|
|---------|
|-3---5-6-|
|-1---3-4-|
  .

Riff 5a
|---------------|
|---------------|
|---------------|
|---------------|
|---------------|
|-0-3-5-4-6-5-6-|


Riff 5b
|---------------|
|---------------|
|---------------|
|---------------|
|-2-5-7-6-8-7-8-|
|-0-3-5-4-6-5-6-|

Tap to rate this tab
# A B C D E F G H I J K L M N O P Q R S T U V W X Y Z