Song name
# A B C D E F G H I J K L M N O P Q R S T U V W X Y Z

Punk Rock Leprechaun - Pot O Gold tab

Artist: Punk Rock Leprechaun
Song Tile: Pot o' Gold


~~~~: vibrato

Gtr. 1(Elec W/ Dist.)
E|--0-7-8-7-0-7-8-7-0-9-10-9-0-8-9-8-0-7-8 7-0-7-8-7-0-9-10-9-0-8-9|
B|-----------------------------------------------------------------|
G|-----------------------------------------------------------------|
D|-----------------------------------------------------------------|
A|-----------------------------------------------------------------|
E|-----------------------------------------------------------------|

E|-8-0-7-8-7-0-7-8-7-0-9-10-9-0-8-9-8-0-7-8 7-0-7-8-7-0-9-10-9-0-8-|
B|-----------------------------------------------------------------|
G|-----------------------------------------------------------------|
D|-----------------------------------------------------------------|
A|-----------------------------------------------------------------|
E|-----------------------------------------------------------------|

E|9-8-0-7-8-7-0-7-8-7-0-9-10-9-0-8-9-8-0-7-8 7-0-7-8-7-0-9-10-9-0-8|
B|-----------------------------------------------------------------|
G|-----------------------------------------------------------------|
D|-----------------------------------------------------------------|
A|-----------------------------------------------------------------|
E|-----------------------------------------------------------------|

E|9-8-0-7-8-7-0-7-8-7-0-9-10-9-0-8-9-8-0-7-8 7-0-7-8-7-0-9-10-9-0-8|
B|-----------------------------------------------------------------|
G|-----------------------------------------------------------------|
D|-----------------------------------------------------------------|
A|-----------------------------------------------------------------|
E|-----------------------------------------------------------------|

E|9-8-0-7-8-7-0-7-8-7-0-10-9-0-9-8-0-10-9-0-9-8-0-10-9-0-9-8-0-0-0-|
B|-----------------------------------------------------------------|
G|-----------------------------------------------------------------|
D|-----------------------------------------------------------------|
A|-----------------------------------------------------------------|
E|-----------------------------------------------------------------|

E|0-0-7-8-7-0-7-8-7-0-9-10-9-0-8-9-8-0-7-8-7-0-7-8-7-0-9-10-9-0-8-9|
B|-----------------------------------------------------------------|
G|-----------------------------------------------------------------|
D|-----------------------------------------------------------------|
A|-----------------------------------------------------------------|
E|-----------------------------------------------------------------|

E|8-0-7-8-7-0-7-8-7-0-9-10-9-0-8-9-8-7-8-7-0-7-8-7-0-10-9-8-9-8-7-0|
B|-----------------------------------------------------------------|
G|-----------------------------------------------------------------|
D|-----------------------------------------------------------------|
A|-----------------------------------------------------------------|
E|-----------------------------------------------------------------|

E|-10-9-8-9-8-7-0-7-8-7-0-7-8-7-0-9-10-9-0-8-9-8-0-7-8-7-0-7-8-7-0-|
B|-----------------------------------------------------------------|
G|-----------------------------------------------------------------|
D|-----------------------------------------------------------------|
A|-----------------------------------------------------------------|
E|-----------------------------------------------------------------|

E|9-10-9-0-8-9-8-0-7-8-7-0-7-8-7~~~~~~~~~~~~~~~~~~~~~~~~~~~~~~~~~~~|
B|-----------------------------------------------------------------|
G|-----------------------------------------------------------------|
D|-----------------------------------------------------------------|
A|-----------------------------------------------------------------|
E|-----------------------------------------------------------------|
                                                            fade out
Tap to rate this tab
# A B C D E F G H I J K L M N O P Q R S T U V W X Y Z