Song name
# A B C D E F G H I J K L M N O P Q R S T U V W X Y Z

Punkreas - American Dream tab

American Dream - Punkreas

Intro Guitar 1

--------------------------------------|
--------------------------------------|
---6-------------------4--------------|
---4---4----2----6---4----------------|
---4---4----2----6---2----------------|
-------2----0----4--------------------|

Intro Guitar 2

------2-------------------------------|
---2----5----454-2--4---2-------------|
--------------------------------------|
--------------------------------------|
--------------------------------------|
--------------------------------------|

Verse
---------------------------------|
---------------------------------|
----6------------4---------------|
----4----2------4----------------|      x2 (part 1)
----4----2------2----------------|
----------0----------------------|

----------------------------------------|
----------------------------------------|
---6-------------------4----------------|
---4---4----2----6---4------------------|     x2 (part 2)
---4---4----2----6---2------------------|
-------2----0----4----------------------|

Bridge
Guitar 1
--------------------------------------|
--------------------------------------|
---6-------------------4--------------|
---4---4----2----6---4----------------|
---4---4----2----6---2----------------|
-------2----0----4--------------------|

Guitar 2
---------2------------------------------|
--2----2--------------------------------|
-----4----------------------------------|
----------------2224-2-1-2-1------------|
---------------------------------4 2----|
----------------------------------------|

---------2--------------4--2-------------|
--2---2-----22 5 2-5--------5-2----------|
----4------------------------------------|
-----------------------------------------|
-----------------------------------------|
-----------------------------------------|

Verse

Chorus

--------------------------|
--------------------------|
----6------46-------------|
----4------46-------------| x3
----4------24-------------|
--------------------------|

----------------------|
----------------------|
------------4---------|
---2---4---4----------|
---2---4---2----------|
---0---2--------------|

Post Chorus


------------------------------------------------|
------------------------------------------------|
---6-7-6---7---6-7-6---4------6-7-6-------------|
---6-7-6---7---6-7-6---4------6-7-6-------------|
---4-5-4---5---4-5-4---2------4-5-4-------------|
------------------------------------------------|


Solo Guitar 2 (Guitar 1 verse part 2)

-4-4--42------------454-5-7-4---------------------------------------------------2---4 ---4-4 2-------|
-----------5-2--2-5-------------4--2--------------------------------------22-5-2---2--------------5--|
----------------------------------------4--------------------6-4-------------------------------------|
-------------------------------------------46464--------7------6--4----------------------------------|
----------------------------------------------------7--4-----------------7---------------------------|
-----------------------------------------------------------------------------------------------------|

---5--5---7-5-4-2-4---------4-5------4-7------------------------------------------------|
--5--5---5------------5----2------5-2-----7-----5-4--------54------64-------------------|
----------------------------------------------------------6-4------64------646----------|
----------------------------------------------------------------------------------------|
----------------------------------------------------------------------------------------|
----------------------------------------------------------------------------------------|


Verse
Chorus
End is the same of chorus
Tap to rate this tab
 
# A B C D E F G H I J K L M N O P Q R S T U V W X Y Z