Song name
# A B C D E F G H I J K L M N O P Q R S T U V W X Y Z

Punkreas - Intifada tab

ARTIST: PUNKREAS
SONG: INTIFADA
ALBUM: 90_93
Tab by fulvio capra  fulvibus91@hotmail.it

Normal tuning

guitar 1:
--------------------------------------------------------|
--------------------------------------------------------|
----9--9--9---------------------------------------------|
----9--9--9--10-10-10-----7--9--9--7-7-7-9-9-9----------|
----7--7--7--10-10-10-----7--9--9--7-7-7-9-9-9----------|
---------------8---8--8------5--7--7--5-5-5-7-7-7-------|
X4

Guitar 2:
------------------------------3-------------------------|
----5-5-5---3-3-3--5-5-5----5-5-5---3-3-3---------------|
--------------------------------------------------------|
--------------------------------------------------------|
--------------------------------------------------------|
--------------------------------------------------------|
X4

both guitars 1 and 2:
---------------------------------------------------------------------------------------|
---------------------------------------------------------------------------------------|
-------------------------5--5---5--4--4--5--4-------------------------5--5---5--4------|
--5--5---5--4--4---4--5--5---5--4--4--5--4--5--5---5--4--4---4--3--3---5--4------------|
--5--5---5--4--4---4--3--3---3--2--2--3--2--5--5---5--4--4---4--3--3---3--2------------|
--3--3---3--2--2---2-------------------------- -3--3---3--2--2---2---------------------|

----------------------------------------------------------------------------------------|
----------------------------------------------------------------------------------------|
--5-4-------------------------5--5---5--4--4--5--4-------------------------5--5---5--7--|
--5-4--5--5---5--4--4---4--5--5---5--4--4--5--4--5--5---5--4--4---4--5--5---5--7--------|
--3-2--5--5---5--4--4---4--3--3---3--2--2--3--2--5--5---5--4--4---4--3--3---3--5--------|
--------3--3---3--2--2---2------------------- --------3--3---3--2--2---2----------------|

both guitars 1 and 2:
--------------------------------------------------|
--------------------------------------------------|
---9--9---9-------------------------5--5---5------|
---9--9---9--7--7---7--5--5---5--5--5---5---------|
---7--7---7--7--7---7--5--5---5--3--3---3---------|
------------- -5--5---5--3--3---3-----------------|
X4

Guitar 1:
--------------------------------------------------|
--------------------------------------------------|
---9--9---9-------------------------5--5---5------|
---9--9---9--7--7---7--5--5---5--5--5---5---------|
---7--7---7--7--7---7--5--5---5--3--3---3---------|
------------- -5--5---5--3--3---3-----------------|
X4

Guitar 2:
---10-/-12-12--10-/-12--12-12-10-12-10-7-5-3---------------------------------------------|
--------------------------------------------------------3-/-5--3-5--3-5-3----------------|
------------------------------------------------------------------------------4-2-0------|
--------------------------------------------------------------------------------------2--|
-----------------------------------------------------------------------------------------|
-----------------------------------------------------------------------------------------|

-10-/-12-12--10-/-12--12-12-10-12-10-7-5-3-----------------------------------------------|
-------------------------------------------------------3-/-5-3-5--3-5-8-/-10-\-8-5-------|
-----------------------------------------------------------------------------------------|
-----------------------------------------------------------------------------------------|
-----------------------------------------------------------------------------------------|
-----------------------------------------------------------------------------------------|

Guitar 1:
-------
-5-/-7
-5-/-7
-3-/-5
------

--------------------------------------------------------|
--------------------------------------------------------|
----9--9--9---------------------------------------------|
----9--9--9--10-10-10-----7--9--9--7-7-7-9-9-9----------|
----7--7--7--10-10-10-----7--9--9--7-7-7-9-9-9----------|
---------------8---8--8------5--7--7--5-5-5-7-7-7-------|
X4

Guitar 2:
------------------------------3-------------------------|
----5-5-5---3-3-3--5-5-5----5-5-5---3-3-3---------------|
--------------------------------------------------------|
--------------------------------------------------------|
--------------------------------------------------------|
--------------------------------------------------------|
X4

both guitars 1 and 2:
---------------------------------------------------------------------------------------|
---------------------------------------------------------------------------------------|
-------------------------5--5---5--4--4--5--4-------------------------5--5---5--4------|
--5--5---5--4--4---4--5--5---5--4--4--5--4--5--5---5--4--4---4--3--3---5--4------------|
--5--5---5--4--4---4--3--3---3--2--2--3--2--5--5---5--4--4---4--3--3---3--2------------|
--3--3---3--2--2---2-------------------------- -3--3---3--2--2---2---------------------|

----------------------------------------------------------------------------------------|
----------------------------------------------------------------------------------------|
--5-4-------------------------5--5---5--4--4--5--4-------------------------5--5---5--7--|
--5-4--5--5---5--4--4---4--5--5---5--4--4--5--4--5--5---5--4--4---4--5--5---5--7--------|
--3-2--5--5---5--4--4---4--3--3---3--2--2--3--2--5--5---5--4--4---4--3--3---3--5--------|
--------3--3---3--2--2---2------------------- --------3--3---3--2--2---2----------------|

both guitars 1 and 2:
--------------------------------------------------|
--------------------------------------------------|
---9--9---9-------------------------5--5---5------|
---9--9---9--7--7---7--5--5---5--5--5---5---------|
---7--7---7--7--7---7--5--5---5--3--3---3---------|
------------- -5--5---5--3--3---3-----------------|
X4

-------------------------------------------------------|
-------------------------------------------------------|
---11--11---11-------------------------7--7---7--------|
---11--11---11--9--9---9--7--7---7--5--5---7-----------|
----9---9-----9-- 9--9---9--7--7---7--5--5---5---------|
-------------------7--7---7--5--5---5------------------|
X8

Guitar 2:
-------------------------------------------------------------------7-------|
--7-7-7---7-5-10-7-7-7---7-5-10-7-7-7---7-5-10-7--10----10-----------------|
---------------------------------------------------------------------------|
---------------------------------------------------------------------------|
---------------------------------------------------------------------------|
---------------------------------------------------------------------------|

----------------------------------------------------------------7-/-9-\-7---------|
--7-7-7---7-5-10-7-7-7---7-5-10-7-7-7---7-5-10-7-10------------10-7---------------|
----------------------------------------------------------------------------------|
----------------------------------------------------------------------------------|
----------------------------------------------------------------------------------|
----------------------------------------------------------------------------------|
Tap to rate this tab
# A B C D E F G H I J K L M N O P Q R S T U V W X Y Z