Punkreas - Tyson Rock tab

Tyson rock   punkreas

D# = E

Riff 1
-----------------------------|
-----------------------------|
-----------------------------|
--7-10-7-2-5---7-10-7-2-2-5--|
--7-10-7-2-5---7-10-7-2-2-5--|
--5-8--5-0-3---5-8--5-0-0-3--|
                      p.m.
Riff 2
-----------------------------|
-----------------------------|
-----------------------------|
--7-10-7-2-5---7-10-7-7-5-5--|
--7-10-7-2-5---7-10-7-7-5-5--|
--5-8--5-0-3---5-8--5-5-3-3--|

Strofa chitarra
-----------------------------------------------------------------------------|
-----------------------------------------------------------------------------|
-----------------------------------------------------------------------------|
-7--5-7--7--5-7--------------------------------------------------------------|
-7--5-7--7--5-7-------5-7-8-7-------5-7-8-7-------5-7-8-7---5-------7-5------|
-5--3-5--5--3-5-5-7-8---------5-7-8---------5-7-8---------8---8-5-8-----8-7--|
               |-------------------BRIDGE------------------------------------|

bridge chorus                      finish
----------------                   ------------------|
----------------                   ------------------|
----------------                   ------------------|
--12-12-2-9-10--                   ---------------7--|
--12-12-2-9-10--                   -------5-7-8-7-7--|
--10-10-0-7-8---                   -5-7-8---------5--|

riff 1 + riff 2 x3
strofa chitarra x1
riff 1 + riff 2 x1
strofa: basso poi strofa chitarra
riff 1 + riff 2 x2
bridge chorus + riff 1 + bridge chorus
BRIDGE a due chitarre
strofa basso
riff 1 + riff 2 x2
bridge chorus + riff 1 + bridge chorus
basso + batteria + voce
riff 1 + riff 2 x2
bridge chorus + riff 1 + bridge chorus
finish

Lyrics
Ieri il pugilato, oggi il rock ‘n roll
Mio padre faticava tutto il giorno come un cane
Per darmi un po’ di pane, un’istruzione, un’opportunità
Sognava di elevarmi ad un gradino superiore
Pagando col sudore la mia ascesa nella società
ehi oh ehi oh ehi oh let's go!

Ma il calcolo purtroppo si rivela inadeguato
Non si può mai prescindere dal posto in cui sei nato
Se nasci proletario e non hai voglia di obbedire
Le strade che puoi fare sono semplici da dire

CHORUS
Ieri il pugilato, oggi il rock ‘n roll
Lunga vita a Tyson finché suona il gong
Siamo maleducati, siamo figli dei Ramones
E ci va bene così
E ci piace così

Mia madre avrebbe certo preferito una carriera
A Mediaset, in banca, nel Corriere della Sera
Ma forse non si è accorta che da dietro le poltrone
La voce che si sente è sempre quella del padrone

CHORUS

Chiuso dentro un angolo lo spazio si fa stretto
Mi appoggio un po’ alle corde
Ma la spugna non la getto più
Calcolo il momento poi parto col diretto
A volte mi va bene qualche volta invece vado giù
3 4 5 6 7 8 9 gong
CHURUS
Tap to rate this tab
 
# A B C D E F G H I J K L M N O P Q R S T U V W X Y Z